rock
 
|tablatures   |lyrics   |discussion forums   |more tabs @ XGuitar.com

Ozzy Osbourne tabs

Dont Blame Me guitar tab

Ozzy Osbourne - Don't Blame Me
Tabbed By: mr.hanky
Email: hockeydude567@hotmail.com

Tuning: Standard (E A D G B E)



/   slide up
\   slide down
^   hammer on/pull off
~   vibrato
b   bend
b^  bend half step up
b^^ bend full step up
T   tap with righthand finger
X   muffled string


another good one off of the no more tears album

introduction
|------------------------------------------------------------------------------|
|------------------------------------------------------------------------------|
|-2-2------------------2-2-------0--2-----2-2------------------2-2-------------|
|-2-2------------------2-2-------0--0-----2-2------------------2-2-------------|
|-0-0-----0-0-3-0------0-0----------0-----0-0-----0-0-3-0------0-0-------------|
|-----------------3----------X---3------------------------3---------3-3--------|

|------------------------------------------------------------------------------|
|----------------------------------------------------------------------3-------|
|-2-2------------------2-2-------2-0-2----2-2------------------2-2--0--2-------|
|-2-2------------------2-2---X-X-0---0----2-2------------------2-2--0--0-------|
|-0-0-----0-0-3-0------0-0---X-X-0---0----0-0-----0-0-3-0------0-0-----0-------|
|-----------------3---------------------------------------3---------3----------|


verse

|-------------------------------------------------------------------------|
|-------------------------------------------------------------------------|
|-------------------------------------------------------------------------|
|-7-7-7-X-5-X-7-X-5-X-7-7-7-7-7-X-5-X-7-X-5-X-7-7-7-7-7-X-5-X-7-X-5-X-7-7-|
|-------------------------------------------------------------------------|
|-------------------------------------------------------------------------|


|-------------------------------------------------------------------------|
|-------------------------------------------------------------------------|
|-2-----------------------5-----------------------0-----------------------|
|-2-----------------------5-----------------------0-----------------------|
|-0-----------------------3-----------------------------------------------|
|-------------------------------------------------3--------------------3^-|

|-------------------------||
|-------------------------||
|-------------------5-5---||
|-7-7-7-X-5-X-------5-5---||
|-------------5-6-7-------||
|-------------------------||


|-------------------------||
|-------------------------||
|-2-----------------------||
|-2-----------------------||
|-0-----------------------||
|-------------------------||

heres the cool part b4 the solo
|----------------------------------------------------------------------|
|-----------------------------------------------7--------7----------7--|
|-------9--7--9---9--11--7----------------------7--------7----------7--|
|-9--7--9--7--9---9--11--7--7--9---7-7-7--9-9-9----9-9--------9-9------|
|-9--7--7--5--7---7--9---5--7--9---7-7-7--9-9-9----9-9--------9-9------|
|-7--5----------------------5--7---5-5-5--7-7-7----7-7--------7-7------|

i dont know the solo but if u do email me
  development and support by
dmitry ivanov