rock
 
|tablatures   |lyrics   |discussion forums   |more tabs @ XGuitar.com

Ozzy Osbourne tabs

Dee (from 'Tribute') guitar tab

DEE (STUDIO OUTTAKES)
As recorded by Randy Rhoads
(From the 1987 Album TRIBUTE)

Music by Randy Rhoads
Transcribed by GuitarGod78@cs.com

Gtr I (E A D G B E) - 'Randy'

 Take 1
  Slowly, rubato H.=48
 3/4
  Gtr I
|--7--------7--|-5------|-^<7>------|-7------7--|-10------10--|
|-------7h8----|--------|-^<7>------|------7----|-------8-----|
|-----7--------|-4------|-^<7>------|----7------|-----7-------|
|--------------|-0------|-^<7>------|-9---------|--9----------|
|-10-----------|--------|-----------|-----------|-------------|
|--------------|--------|-----------|-----------|-------------|


|--------------12--|--12-------|--7--------7--|
|-----------10-----|-----------|-------7h8----|
|--------9---------|-----------|-----7--------|
|-9s11-(11)--------|-(11)------|--------------|
|------------------|-----------|-10-----------|
|------------------|-----------|--------------|


|---------|---------|----------|-0----0---|
|-10------|-8-------|-7--5--3--|----------|
|---------|----6----|----------|----------|
|---------|---------|----------|----------|
|--9------|-7-------|-5--4--2--|----------|
|---------|---------|----------|-3--------|


|-----------|-------------|--0------2h3p2p0-|-2------2---|---------0-2-|
|-5p3-2--3--|-3-------3---|------3----------|------0---0-|-(0)---------|
|-----------|-----------2-|-----------------|----2-------|------2------|
|-----------|-----0-------|-(0)-------------|-1----------|-------------|
|-0---------|-------------|-----------------|------------|--2----------|
|-----------|-2--(2)------|-(2)-------------|------------|---------3-2-|


|-3----------|--3p=2-2p0---0-|----------|-<12>------|---------------------|
|--------0---|-----------3---|-2-----3--|-----------|---------------------|
|------0---0-|---------------|----0-----|-<12>------|-2h4p2p0-------------|
|----2-------|---------------|----------|-----------|---------4p2p0-------|
|------------|---------------|-0--------|---0-------|---------------4p2p0-|
|-0----------|-(0)---4-------|----------|-----------|---------------------|


|----2-3-5h7p5-|--------0--|---2-3-5-7h9p7-|---------0-|-5p3-3p2-2p0-|
|----3-5-------|-3----3----|---3-5-7-------|-2-----3---|-------------|
|--------------|----0------|---------------|----0------|-------------|
|-0------------|-----------|-0-------------|-----------|-0-----------|
|--------------|-2---------|---------------|-0---------|-------------|
|--------------|-----------|---------------|-----------|-------------|


|-2-0---0-----|---0---------|----------|-------------|-3p2-2p0------||
|-----3---5s3-|-3---2p0-3s5-|-2-----3--|-3-----------|---------<7>--||
|-------------|-------------|----0-----|----2--------|---------<7>--||
|-------------|-------------|----------|-------0-(0)-|---------<7>--||
|-4-----------|-2---0-------|-0--------|----------2--|-----4--------||
|-------------|-------------|----------|-2-----------|-0------------||


 Take 2
|--7--------7--|-5------|----------|-7------7--|-10-------10---|
|-------7h8----|--------|-<7>------|------7----|----8---8------|
|-----7--------|-4------|-<7>------|----7------|------7--------|
|--------------|-0------|-<7>------|-9---------|--9------------|
|-10-----------|--------|----------|-----------|---------------|
|--------------|--------|----------|-----------|---------------|


|--------------12s11-|--12-------|
|-----------10-------|-----------|
|--------9-----------|-----------|
|-9s11-(11)----------|-(11)------|
|--------------------|-----------|
|--------------------|-----------|


|--7--------7--|---------|----------|-----------|
|-------7h8----|-10------|-8-----8--|-7--5--3---|
|-----7--------|---------|----6-----|-----------|
|--------------|---------|----------|-----------|
|-10-----------|--9------|-7--------|-5--4--2---|
|--------------|---------|----------|-----------|


|-0--------|-----------|--------------|--0------2h3p2p0--|
|-------5--|-5p3-2--3--|-3--(3)---3---|------3-----------|
|----4-----|-----------|--------2---2-|------------------|
|----------|-----------|-----0--------|-(0)--------------|
|----------|-0---------|--------------|------------------|
|-3--------|-----------|-2--(2)-------|-(2)--------------|


|-2------2---|---------0-2-|-3----------|--3p=2-2p0---0-|----------|-<12>----|
|------0---0-|-(0)--0------|--------0---|-----------3---|-2-----3--|---------|
|----2-------|-------------|------0---0-|---------------|----0-----|-<12>----|
|-1----------|-------------|----2-------|---------------|----------|---------|
|------------|--2----------|------------|---------------|-0--------|--(0)----|
|------------|---------3-0-|-0----------|-(0)---4-------|----------|---------|


|---------------------|----2-3-5h7p5-|--------0--|---2-3-5-7h9p7-|
|---------------------|----3-5-------|-3----3----|---3-5-7-------|
|-2h4p2h4-------------|--------------|----0------|---------------|
|---------4p2p0-------|-0------------|-----------|-0-------------|
|---------------4p2p0-|--------------|-2---------|---------------|
|---------------------|--------------|-----------|---------------|


|---------0-|-5p3-3p2-2p0-|-2p0---0-----|---0---------|----------|
|-2-----3---|-------------|-----3---5s3-|-3---2p0-3s5-|-2-----3--|
|----0------|-------------|-------------|-------------|----0-----|
|-----------|-0-----------|-------------|-------------|----------|
|-0---------|-------------|-4-----------|-2---0-------|-0--------|
|-----------|-------------|-------------|-------------|----------|


  H.=H          H.=H
|-------------|-3p2-2p0------*|
|-3-----------|---------<7>--*|
|----2--------|---------<7>--*|
|-------0-(0)-|---------<7>--*|
|-2--------2--|-----4--------*|
|-------------|-0------------*|


Tablature Legend
----------------
 h   - hammer-on
 p   - pull-off
 b   - bend
 pb  - pre-bend
 r   - bend release (if no number after the r, then release immediately)
 /\  - slide into or out of (from/to "nowhere")
 s   - legato slide
 S   - shift slide
  - natural harmonic
[n]  - artificial harmonic
n(n) - tapped harmonic
 ~   - vibrato
 tr  - trill
 T   - tap
 TP  - trem. picking
 PM  - palm muting
\n/  - tremolo bar dip; n = amount to dip
 \n  - tremolo bar down
 n/  - tremolo bar up
/n\  - tremolo bar inverted dip
 =   - hold bend; also acts as connecting device for hammers/pulls
 <>  - volume swell (louder/softer)
 x   - on rhythm slash represents muted slash
 o   - on rhythm slash represents single note slash

Misc Legend
-----------
 |  - bar
||  - double bar
||o - repeat start
o|| - repeat end
*|  - double bar (ending)
 :  - bar (freetime)
 $  - Segno
 &  - Coda
  development and support by
dmitry ivanov