rock
 
|tablatures   |lyrics   |discussion forums   |more tabs @ XGuitar.com

Ozzy Osbourne tabs

Crazy Train (from 'Tribute') guitar tab

CRAZY TRAIN
As recorded by Ozzy Osbourne / Randy Rhoads
(From the 1987 Album TRIBUTE)

Words and Music by Osbourne, Rhoads, Daisley
Transcribed by Hair_rocker@yifan.net

Gtr I (E A D G B E) - 'Randy'

 Intro
  Q=136
 4/4
  Gtr I
|------------------|----------------|------------------|----0---0----|
|------------------|----------------|------------------|-3----3-5----|
|-11-11---(11)\----|-2--------------|-11-11---(11)\----|-2------4----|
|-11-11---(11)\----|-2------2-2-----|-11-11---(11)\----|-0------2----|
|--9--9----(9)\----|-0------2-2-----|--9--9----(9)\----|-------------|
|------------------|----4-2-0-0-4p0-|------------------|-------------|


|----------------|---------------|----------------|
|----------------|---------------|----------------|
|-11--(11)\------|-2-------------|-11------(11)\--|
|-11--(11)\------|-2------2------|-11------(11)\--|
|--9---(9)\------|-0------2------|--9-------(9)\--|
|----------------|----4-2-0--4p0-|----------------|


|----0-------------|-----------------|--12----------|
|-3----3-5---12b14-|-(12)----(12)----|-(12)---------|
|-2------4---------|-----------------|--------------|
|-0------2---------|-----------------|--------------|
|------------------|-----------------|-----------x--|
|------------------|-----------------|-----------x--|


|-----------------------------------------------|
|-----------------------------------------------|
|-[11]b14-[11]b14-[11]b14-11b14-11b14==(11)b15==|
|-----------------------------------------------|
|-----------------------------------------------|
|-----------------------------------------------|


|------------------------|------------|----------------------|
|------------------------|------------|----------------------|
|-(11)----(11)r\----4b6==|=(4)--------|-(4)r==(4)b6-(4)------|
|------------------------|------------|----------------------|
|-----------------x------|------------|-------------------0--|
|------------------------|------------|----------------------|


        \0.5/
|---------------------|-----------||------------------|------------------|
|---------------------|-----------||o-----------------|------------------|
|---------------------|-----------||------------------|------------------|
|---------------------|-----------||------------------|------------------|
|-(0)--(0)-----(0)----|-x\--------||o-----4---5---4---|-2-------2--------|
|---------------------|-x\--------||--2-2---2---2---2-|---5-4-5---5-4-0--|


  1.                                    2.
|-----------------|------------------||-----------------|-(2)----0----||
|-----------------|-----------------o||-----------------|--3-----0----||
|-----------------|------------------||-----------------|--2-----1----||
|-----------------|------------------||-----------------|--0-----2----||
|-----4---5---4---|-2-------2-------o||-----4---5---4-2-|--------2----||
|-2-2---2---2---2-|---5-4-5---5-4-0--||-2-2---2---2-----|--------0----||


  PM|   PM|   PM|     PM|                PM|   PM--|   PM|
|-----------7-----|--------------------|-------------------|
|-----5-----5-----|-3-----2-(2)--------|-----2-------5-----|
|-----6-----4-----|-2-----2-(2)-----2--|-----2-------4-----|
|-----7-----6-----|-4-----2-(2)-----2--|-----2-------6-----|
|-0-0---0-0---0-0-|-------0-(0)-2s4----|-0-0---0-0-0---0-0-|
|-----------------|---2-4--------------|-------------------|


                                  1st Verse
                                         PM|   PM|
|-------------------------------||-----------7-----|-5-----------------|
|-3-----2-(2)-------------------||-----5-----5-----|-3-------2-(2)-----|
|-2-----2-(2)-4p2p0-------------||-----6-----4-----|-2-2-(2)-2-(2)-----|
|-4-----2-(2)-------4p2p0-------||-----7-----6-----|-4-2-(2)-2-(2)-----|
|-------0-(0)-------------4p2p0-||-0-0---0-0---0-0-|---2h=4--0-(0)---0-|
|---2-4-------------------------||-----------------|-------------------|


        PM|   PM|     PM|
|-----------7-----|-5-----------------------------|
|-----2-----5-----|-3-----2-----------------------|
|-----2-----4-----|-2-----2--6b9==(6)r(6)b11-(6)--|
|-----2-----6-----|-4-----2-----------------------|
|-0-0---0-0---0-0-|---0-0-0-----------------------|
|-----------------|-------------------------------|


  PM|   PM|   PM|     PM|
|-----------7-----|----------------|
|-----5-----5-----|-3-----2-(2)----|
|-----6-----4-----|-2-----2-(2)----|
|-----7-----6-----|-4-----2-(2)----|
|-0-0---0-0---0-0-|---0-0----------|
|-----------------|----------------|


  PM|   PM|   PM|     PM|   PM----------|   PM--|    PM-|
|-----------------|-----------------|-------------7-------|---------------|
|-----2-----5-----|-3---------------|-----5-------5-------|-3----2-(2)----|
|-----2-----4-----|-2-----x---------|-----6-------4-------|-2----2-(2)----|
|-----2-----6-----|-4-----2---------|-----7-------6-------|-4----2-(2)----|
|-0-0---0-0---0-0-|-------0---------|-0-0---0-0-0---(0)-0-|----0----------|
|-----------------|---0-2---0-2-3-4-|---------------------|---------------|


  PM|   PM--|                                       PM|   PM--|   PM
|-----------------------|-------------------------|-------------7-----|
|-----2-------5---------|-3-----2-(2)-------------|-----5-------5-----|
|-----2-------4---------|-2-----2-(2)-[6]b11-(6)--|-----6-------4-----|
|-----2-------6-----2s4-|-------2-(2)-------------|-----7-------6---4-|
|-0-0---0-0-0---(0)-----|-------0-(0)-------------|-0-0---0-0-0---0---|
|-----------------------|---2-4-------------------|-------------------|


      PM|         PM----|   PM|           PM|
|-------------------|-----------------|-------------------||
|--3------2-(2)-----|-----5-----5-----|-3-----2-(2)-------||
|--2------2-(2)-----|-----6-----4-----|-2-----2-(2)-------||
|-(4)-----2-(2)-----|-----7-----6-----|-4-----2-(2)-------||
|---------0-(0)---0-|-0-0---0-0-------|-------0-(0)-------||
|-----2-4-----------|-------------0h2-|---2-4--------12\--||


 Chorus
                                  ~~~~~~~~~
|------------------|--------------------------|
|------------------|---------<7>--------------|
|----------------7-|-(7)-<5>-----<3>-(<3>)----|
|-4---4--(4)-----7-|-(7)----------------------|
|-4---4--(4)-----5-|-(5)----------------------|
|-2-0-2--(2)-2-0---|--------------------------|


|--------------|------------------------||
|--------------|------------------------||
|------------7-|-(7)--0-----------------||
|-4---4------7-|-(7)--------------------||
|-4---4----x-5-|-(5)-----16b17--(16)\---||
|-2-0-2----0---|------------------------||


|----------------|------------|-------2--------------------------|
|--------------5-|-(5)--------|-----2---5p2-3p2---2--------------|
|-2----(2)-----4-|-(4)--------|-4b6-------------5---5p2-4p2------|
|-2----(2)-----2-|-(2)--------|-----------------------------4p2--|
|-0----(0)-------|------------|----------------------------------|
|----------4-2-0-|-(0)--------|----------------------------------|


|---------------------------------|----------------|-------------------|
|---------------------------------|--------------5-|-(5)---------------|
|---------------------------------|-2----(2)-----4-|-(4)---x\----------|
|-4p2-----------------------------|-2----(2)---2-2-|-(2)------x\-------|
|-----4p3p2h3p2---2h3p2h3p2---(x)-|-0----(0)-4-----|--------------x\---|
|---------------5-----------5-----|--------------0-|-(0)---------------|


                                        ~
|-------<4>-----------|--------------------|
|-------<4>-----------|--------------------|
|-------<4>---------2-|-(2)----------------|
|-4-4-4-----<4>-----2-|-(2)-----2-(2)------|
|-4-4-4-----<4>-----0-|-(0)-----2-(2)------|
|-2-0-2---------2-4---|-----4-2-0-(0)-2-4--|


                                  PM--|
|-------<4>-<4>-------|------------------|
|-------<4>-<4>-----3-|-3---5-(5)--------|
|-------<4>-<4>-----2-|-2---4-(4)--------|
|-4-4-4-------------0-|-0---2-(2)--------|
|-4-4-4---------4-4---|------------------|
|-2-0-2---------2-0---|-----------0-2-4--|


  PM|   PM--|   PM|                        PM|   PM--|   PM|
|-------------7-----|-5------------------|-------------7-----|
|-----2-------5-----|-3-----2-(2)------2-|-----2-------5-----|
|-----2-------4-----|-2-----2-(2)------2-|-----2-------4-----|
|-----2-------6-----|-4-----2-(2)------2-|-----2-------6-----|
|-0-0---0-0-0---0-0-|-------0-(0)--2s4---|-0-0---0-0-0---0-0-|
|-------------------|---2-4--------------|-------------------|


                                    2nd Verse
        PM                                 PM|   PM|
|-5-------------------------------||-----------7-----|-5-----------------|
|-3-------2-(2)-------------------||-----5-----5-----|-3-------2-(2)-----|
|-2-------2-(2)-4p2p0-------------||-----6-----4-----|-2-2-(2)-2-(2)-----|
|-4-------2-(2)-------4p2p0-------||-----7-----6-----|-4-2-(2)-2-(2)-----|
|---------0-(0)-------------4p2p0-||-0-0---0-0---0-0-|---2h=4--0-(0)---0-|
|---(2)-4-------------------------||-----------------|-------------------|


        PM|   PM|       PM                  PM|   PM|   PM|     PM|
|-----------7-----|-5-5-------------------|-----------7-----|----------------|
|-----2-----5-----|-3-3---2-(2)-----------|-----5-----5-----|-3-----2-(2)----|
|-----2-----4-----|-2-2---2-(2)-6b11-(6)--|-----6-----4-----|-2-----2-(2)----|
|-----2-----6-----|-4-4---2-(2)-----------|-----7-----6-----|-4-----2-(2)----|
|-0-0---0-0---0-0-|-----0-----------------|-0-0---0-0---0-0-|---0-0----------|
|-----------------|-----------------------|-----------------|----------------|


  PM|   PM|   PM|                                  PM|   PM--|    PM-|
|-----------------|------------------------------|-------------7-------|
|-----2-----5-----|-3----------------------------|-----5-------5-------|
|-----2-----4-----|-2--2h4p2h4p2h4p2h4p2h4p2h4p2-|-----6-------4-------|
|-----2-----6-----|-4----------------------------|-----7-------6-------|
|-0-0---0-0---0-0-|------------------------------|-0-0---0-0-0---(0)-0-|
|-----------------|------------------------------|---------------------|


     PM           PM|   PM--|    PM
|---------------|-----------------------|
|-3----2-(2)----|-----2-------5---------|
|-2----2-(2)----|-----2-------4---------|
|-4----2-(2)----|-----2-------6-----2s4-|
|----0----------|-0-0---0-0-0---(0)-----|
|---------------|-----------------------|


      PM      PM      PM|   PM--|   PM
|-5-5---------------|-------------7-----|
|-3-3---2-(2)-------|-----5-------5-----|
|-2-2---2-(2)-------|-----6-------4-----|
|-4-4---2-(2)-------|-----7-------6---4-|
|-----0-0-(0)-------|-0-0---0-0-0---0---|
|-------------2-3-4-|-------------------|


                                                            Pre-chorus
      PM|         PM----|   PM|
|-------------------|-----------------|-------------------||-------------------|
|--3------2-(2)-----|-----5-----5-----|-3-----2-(2)-------||-------------------|
|--2------2-(2)-----|-----6-----4-----|-2-----2-(2)-------||----------------7--|
|-(4)-----2-(2)-----|-----7-----6-----|-4-----2-(2)-------||-4---4--(4)-----7--|
|---------0-(0)---0-|-0-0---0-0-------|-------0-(0)-------||-4---4--(4)-----5--|
|-----2-4-----------|-------------0h2-|---2-4--------12\--||-2-0-2--(2)-2-0----|


|---------------------<5>---|--------------|------------||
|-----------------<5>-------|--------------|------------||
|-(7)---------<5>-----------|------------7-|-(7)--------||
|-(7)-----<5>---------------|-4---4------7-|-(7)--------||
|-(5)-<5>-------------------|-4---4----x-5-|-(5)--------||
|---------------------------|-2-0-2----0---|-----19\----||


 Chorus
|----------------|------------|
|--------------5-|-(5)--------|
|-2----(2)-----4-|-(4)--------|
|-2----(2)-----2-|-(2)--------|
|-0----(0)-------|------------|
|----------4-2-0-|-(0)--------|


|-------------------------------------------------|
|----10-13p10----14p11----15p12----16p13----17p14-|
|-11----------11-------12-------13-------14-------|
|-------------------------------------------------|
|-------------------------------------------------|
|-------------------------------------------------|


|----------------------------------------------|
|----18p15----19p16----20p17----21p18----------|
|-15-------16-------17-------18-------19-------|
|----------------------------------------------|
|----------------------------------------------|
|----------------------------------------19\---|


|----------------|------------------|
|--------------5-|-(5)--------------|
|-2----(2)-----4-|-(4)---x\---------|
|-2----(2)---2-2-|-(2)------x\--x\--|
|-0----(0)-4-----|------------------|
|--------------0-|-(0)--------------|


                                        ~
|-------<4>-----------|--------------------|
|-------<4>-----------|--------------------|
|-------<4>---------2-|-(2)----------------|
|-4-4-4-----<4>-----2-|-(2)---2-2-(2)------|
|-4-4-4-----<4>-----0-|-(0)-4---2-(2)------|
|-2-0-2---------2-4---|---------0-(0)-2-4--|


|-------<4>-<4>-------|-----0-2-0-(0)-----||
|-------<4>-<4>-----3-|-(3)-----0-(0)-----||
|-------<4>-<4>-----2-|-(2)-----1-(1)-----||
|-4-4-4-------------0-|-(0)-----2-(2)-----||
|-4-4-4---------4-4---|---------2-(2)-----||
|-2-0-2---------2-0---|---------0-(0)-----||


 Bridge
|------------------|---------------|----------------|----0---------|
|------------------|---------------|----------------|-3----3-5-----|
|-11-11---(11)\----|-2-------------|-11----(11)\----|-2------4-----|
|-11-11---(11)\----|-2------2------|-11----(11)\----|-0------2-----|
|--9--9----(9)\----|-0------2------|--9-----(9)\----|--------------|
|------------------|----4-2-0--4p0-|----------------|--------------|


|----------------------|---------------|----------------|---------------------||
|----------------------|---------------|----------------|-------------7-10p7--||
|-11-11---(11)--(11)\--|-2-------------|-11----(11)\----|-7----9--(9)---------||
|-11-11---(11)--(11)\--|-2------2------|-11----(11)\----|-7----9--(9)---------||
|--9--9----(9)---(9)\--|-0------2------|--9-----(9)\----|-5----7--(7)---------||
|----------------------|----4-2-0--4p0-|----------------|---------------------||


 Guitar-solo
   T          T               T               T
|------------------------------------------------------------|
|-14p10p7h10-14p10p7h10p7h10-14p10p7h10p7h10-14p10p7h10p7h10-|
|------------------------------------------------------------|
|------------------------------------------------------------|
|------------------------------------------------------------|
|------------------------------------------------------------|


   T               T               T               T
|----------------------------------------------------------------|
|-14p10p7h10p7h10-15p10p7h10p7h10-15p10p7h10p7h10-15p10p7h10p7-9h|
|--------------------------------------------------x-------------|
|----------------------------------------------------------------|
|----------------------------------------------------------------|
|----------------------------------------------------------------|


|--------------------------------------------|
|-12p9h12p9h12p9h12p9h12p9s7h10p7h10p7h10p7--|
|--------------------------------------------|
|--------------------------------------------|
|--------------------------------------------|
|--------------------------------------------|


                     ~~~                         ~~~~~               ~~~~~
|------------------------x--|----------17-16-14----------|-14-16-17-17b19----|
|-------10---------------x--|-------14----------17b19----|-------------------|
|-9b11-----9b11-(9)-(9)-----|----14----------------------|-------------------|
|---------------------------|-16-------------------------|-------------------|
|---------------------------|----------------------------|-------------------|
|---------------------------|----------------------------|-------------------|


|-14-17p14----14----------------------------------|
|----------17----17-15p14-15p14-------------------|
|-------------------------------17p14-16p14-------|
|-------------------------------------------16p14-|
|-------------------------------------------------|
|-------------------------------------------------|


                         ~~~~
|----------------------------------------|
|--------17------------------------14h17-|
|-16b18=====16r(16)p14-(14)--14h16-------|
|----------------------------------------|
|----------------------------------------|
|----------------------------------------|


|-14h17p14h17p14h17p14h17p14s16h19p16h19p16s17h21p17h21p17-|
|----------------------------------------------------------|
|----------------------------------------------------------|
|----------------------------------------------------------|
|----------------------------------------------------------|
|----------------------------------------------------------|


|-21p17h21p17h21p17h21p17h21p17h21p17h21p17s16h19p16--|
|-----------------------------------------------------|
|-----------------------------------------------------|
|-----------------------------------------------------|
|-----------------------------------------------------|
|-----------------------------------------------------|


|-19p16h19p16h19p16h19p16hxp16s14h15p14h15p14h15p14-|
|---------------------------------------------------|
|---------------------------------------------------|
|---------------------------------------------------|
|---------------------------------------------------|
|---------------------------------------------------|


                    ~~~~            PM
|--------17---------------------------|
|-17b19-----17b19-(17)-17-14----------|
|----------------------------16-14----|
|----------------------------------16-|
|-------------------------------------|
|-------------------------------------|


      PM---|      PM---|      PM---|      PM---|                          ~~
|-------------------------------------------------|----------------------------|
|-------------------------------------------------|----------------------------|
|-14----------14----------14----------14----------|-13h14p13-16-14p13----16----|
|----16-14-------16-14-------16-14-------16-14----|-------------------16-------|
|----------16----------16----------16----------16-|----------------------------|
|-------------------------------------------------|----------------------------|


|-------------------------14-17p16p14-19p17-19p17-|
|----------------------17-------------------------|
|-------------14-16s18----------------------------|
|-------14-16-------------------------------------|
|-14-16-------------------------------------------|
|-------------------------------------------------|


   ~~~~~~~~~~~~~~~~~~~~~~~~
|-19b21---19b21==(19)-(19)-----||
|------------------------------||
|------------------------------||
|------------------------------||
|------------------------------||
|--------------------------x\--||


                                        1.
||------------------|-----------------|-----------------|-------------------||
||o-----------------|-----------------|-----------------|------------------o||
||------------------|-----------------|-----------------|-------------------||
||------------------|-----------------|-----------------|-------------------||
||o-----4---5---4---|-2-------2-------|-----4---5---4---|-2-------2--------o||
||--2-2---2---2---2-|---5-4-5---5-4-0-|-2-2---2---2---2-|---5-4-5---5-4-0---||


  2.
                                   PM|   PM|   PM|     PM|
|-----------------|-(2)----0----||-----------7-----|--------------------|
|-----------------|--3-----0----||-----5-----5-----|-3-----2-(2)--------|
|-----------------|--2-----1----||-----6-----4-----|-2-----2-(2)-----2--|
|-----------------|--0-----2----||-----7-----6-----|-4-----2-(2)-----2--|
|-----4---5---4-2-|--------2----||-0-0---0-0---0-0-|-------0-(0)-2s4----|
|-2-2---2---2-----|--------0----||-----------------|---2-4--------------|


                                                      3rd Verse
  PM|   PM--|   PM|     PM|                                  PM|   PM|
|-------------------|-------------------------------||-----------7------|
|-----2-------5-----|-3-----2-(2)-------------------||-----5-----5------|
|-----2-------4-----|-2-----2-(2)-4p2p0-------------||-----6-----4------|
|-----2-------6-----|-4-----2-(2)-------4p2p0-------||-----7-----6------|
|-0-0---0-0-0---0-0-|-------0-(0)-------------4p2p0-||-0-0---0-0---0-0--|
|-------------------|---2-4-------------------------||------------------|


                            PM|   PM|
|-5-----------------|-----------7-----|
|-3-------2-(2)-----|-----2-----5-----|
|-2-2-(2)-2-(2)-----|-----2-----4-----|
|-4-2-(2)-2-(2)-----|-----2-----6-----|
|---2h=4--0-(0)---0-|-0-0---0-0---0-0-|
|-------------------|-----------------|


    PM                          PM|   PM|
|------9s10-10s12s10s=9-|-----------7------|
|-3---10s12-12s14s12s10-|-----5-----5------|
|-2---------------------|-----6-----4------|
|-4---------------------|-----7-----6------|
|---0-------------------|-0-0---0-0---0-0--|
|-----------------------|------------------|


    PM|            PM|   PM|   PM|     PM|
|----------------|-----------------|---------------------------|
|-3-----2-(2)----|-----2-----5-----|-3-----2-(2)---------------|
|-2-----2-(2)----|-----2-----4-----|-2-----2-(2)-[6]b11-([6])--|
|-4-----2-(2)----|-----2-----6-----|-4-----2-(2)---------------|
|---0-0----------|-0-0---0-0---0-0-|-------0-(0)---------------|
|----------------|-----------------|---2-4---------------------|


  PM|   PM--|    PM-|
|-------------7-------|---------------|
|-----5-------5-------|-3----2-(2)----|
|-----6-------4-------|-2----2-(2)----|
|-----7-------6-------|-4----2-(2)----|
|-0-0---0-0-0---(0)-0-|----0----------|
|---------------------|---------------|


  PM|   PM--|    PM         PM|
|-----------------------|---------------------------|
|-----2-------5---------|-3-----2-(2)---------------|
|-----2-------4---------|-2-----2-(2)-[6]b11-([6])--|
|-----2-------6-----2s4-|-------2-(2)---------------|
|-0-0---0-0-0---(0)-----|-------0-(0)---------------|
|-----------------------|---2-4---------------------|


  PM|   PM--|   PM        PM|         PM----|   PM|
|-------------7-----|-------------------|-----------------|-------------------||
|-----5-------5-----|--3------2-(2)-----|-----5-----5-----|-3-----2-(2)-------||
|-----6-------4-----|--2------2-(2)-----|-----6-----4-----|-2-----2-(2)-------||
|-----7-------6---4-|-(4)-----2-(2)-----|-----7-----6-----|-4-----2-(2)-------||
|-0-0---0-0-0---0---|---------0-(0)---0-|-0-0---0-0-------|-------0-(0)-------||
|-------------------|-----2-4-----------|-------------0h2-|---2-4--------12\--||


 Pre-chorus
|------------------|--------------------------|
|------------------|-------------<7>-(<7>)----|
|----------------7-|-(7)-----<5>--------------|
|-4-4-4--(4)-----7-|-(7)-<5>------------------|
|-4-4-4--(4)-----5-|-(5)----------------------|
|-2-0-2--(2)-2-0---|--------------------------|


                                 T
|--------------|---------------------------||
|--------------|---------------------------||
|------------7-|-(7)-4s18--(18)-21-(21)\---||
|-4---4------7-|-(7)-----------------------||
|-4---4----x-5-|-(5)-----------------------||
|-2-0-2----0---|---------------------------||


|----------------|-----------17b19==|
|--------------5-|-(5)--------------|
|-2----(2)-----4-|-(4)--------------|
|-2----(2)-----2-|-(2)--------------|
|-0----(0)-------|------------------|
|----------4-2-0-|-(0)--------------|


|-(17)r(17)-14-------14----------------------------|
|--------------17b19----17p14----14----------------|
|-----------------------------17----17-16p14-16p14-|
|--------------------------------------------------|
|--------------------------------------------------|
|--------------------------------------------------|


|-----------------------------------------|----------------|-------------------|
|-----------------------------------------|--------------0-|-(0)---------------|
|-----------------------------------------|-2----(2)-----4-|-(4)---x\----------|
|-16p14-----------------------------------|-2----(2)---2-2-|-(2)------x\--x\---|
|-------16p(15)-14-15p14----14b16--(14)\--|-0----(0)-4-----|-------------------|
|------------------------17---------------|--------------0-|-(0)---------------|


|-------<4>-----------|----------------0--|
|-------<4>-----------|---------5-(5)--5--|
|-------<4>---------2-|-(2)-----4-(4)--4--|
|-4-4-4-----<4>-----2-|-(2)-----2-(2)--2--|
|-4-4-4-----<4>-----0-|-(0)---------------|
|-2-0-2---------2-4---|-----4-2-0-(0)-----|


|-------<4>-<4>-------|------0---0-------||
|-------<4>-<4>-----3-|-(3)----3-0-------||
|-------<4>-<4>-----2-|-(2)------1-------||
|-4-x-4-----<4>-4-4-0-|-(0)------2-------||
|-4-x-4---------4-4---|----------2--x\---||
|-2-0-2---------2-0---|----------0-------||


 Outro
|----------------------|---------------|------------------|----0---0----|
|----------------------|---------------|------------------|-3----3-0----|
|-11-11---(11)-(11)\---|-2-------------|-11-11-(11)\------|-2------1----|
|-11-11---(11)-(11)\---|-2------2------|-11-11-(11)\------|-0------2----|
|--9--9----(9)--(9)\---|-0------2------|--9--9--(9)\------|--------2----|
|----------------------|----4-2-0--4p0-|------------------|--------0----|


                                ~
|----------------------|-------------|------------------|----0---0----------||
|----------------------|--------5----|------------------|-3----3-0---12b13--||
|-11-11---(11)-(11)\---|-2------4----|-11-11---(11)-----|-2------1----------||
|-11-11---(11)-(11)\---|-2----2-2----|-11-11---(11)-----|-0------2----------||
|--9--9----(9)--(9)\---|-0--4--------|--9--9----(9)---4-|--------2----------||
|----------------------|-------------|------------------|--------0----------||


                           ~~~~~~~~~
|------------------|------12---(12)-------|
|-12b14----(12)----|-(12)-----------------|
|------------------|-----------------(x)--|
|------------------|----------------------|
|------------------|----------------------|
|------------------|----------------------|


|-------------------------------------------------|-----------------------------|
|-------------------------------------------------|-----------------------------|
|-[11]b14-[11]b14-[11]b14-[11]b14-[11]b14-[11]b15-|-(11)----(11)\------[11]b14--|
|-------------------------------------------------|-----------------------------|
|-------------------------------------------------|----------------(x)----------|
|-------------------------------------------------|-----------------------------|


|------------------------------------|---------------------------------|
|------------------------------------|---------------------------------|
|-[11]--[11]--[11]--[11]--[11]--[11]-|--[11]--[11]--[11]--[11]--[11]---|
|------------------------------------|---------------------------------|
|------------------------------------|---------------------------------|
|------------------------------------|---------------------------------|


      \0.5/        \0.5/
|-------------------------|------------------|
|-------------------------|------------------|
|-------------------------|------x\----------|
|-------------------------|----------x\--x\--|
|-0--(0)-----(0)--(0)-----|-(0)--------------|
|-------------------------|------------------|


||------------------|------------------|
||o-----------------|------------------|
||------------------|------------------|
||------------------|------------------|
||o-----4---5---4---|-2-------2--------|
||--2-2---2---2---2-|---5-4-5---5-4-0--|


  1.                                    2.
|-----------------|------------------||--------------------|
|-----------------|-----------------o||--------------------|
|-----------------|------------------||--------------------|
|-----------------|------------------||--------------------|
|-----4---5---4---|-2-------2-------o||------4---5---4-----|
|-2-2---2---2---2-|---5-4-5---5-4-0--||--2-2---2---2---(2)-|


|-----------|--------------*|
|-3----5----|--------------*|
|-2----4----|-11-11\-------*|
|-0----2----|-11-11\-------*|
|-----------|--9--9\-------*|
|-----------|--------------*|


Tablature Legend
----------------
 h   - hammer-on
 p   - pull-off
 b   - bend
 pb  - pre-bend
 r   - bend release (if no number after the r, then release immediately)
 /\  - slide into or out of (from/to "nowhere")
 s   - legato slide
 S   - shift slide
  - natural harmonic
[n]  - artificial harmonic
n(n) - tapped harmonic
 ~   - vibrato
 tr  - trill
 T   - tap
 TP  - trem. picking
 PM  - palm muting
\n/  - tremolo bar dip; n = amount to dip
 \n  - tremolo bar down
 n/  - tremolo bar up
/n\  - tremolo bar inverted dip
 =   - hold bend; also acts as connecting device for hammers/pulls
 <>  - volume swell (louder/softer)
 x   - on rhythm slash represents muted slash
 o   - on rhythm slash represents single note slash

Misc Legend
-----------
 |  - bar
||  - double bar
||o - repeat start
o|| - repeat end
*|  - double bar (ending)
 :  - bar (freetime)
 $  - Segno
 &  - Coda
  development and support by
dmitry ivanov