rock
 
|tablatures   |lyrics   |discussion forums   |more tabs @ XGuitar.com

Ozzy Osbourne tabs

Chlidren Of The Grave guitar tab

CHILDREN OF THE GRAVE
As recorded by Ozzy Osbourne / Randy Rhoads
(From the 1987 Album TRIBUTE)

Words and Music by Iommi, Ward, Osbourne, Butler
Transcribed by Hair_Rocker@yifan.net

Gtr I (E A D G B E) - 'Randy'
Gtr II (E A D G B E) - 'Rhytm'

 Intro
  Bright Rock Q.=146
 12/8
  Gtr I
                         PM----|    PM----|
                                             7x
|-------x\--------||-------------------------||
|-------x\--------||o-----------------------o||
|-----------------||--6----------6-----------||
|------------x\---||--6----------6-----------||
|------------x\---||o-4--4-4-4-4-4--4-4-4-4-o||
|-----------------||-------------------------||


                                           ~~~~~~~~~~~
|--------------------------|--------------------|-------------------|
|--------------------------|--------------------|-------------------|
|-9-9-9-9-9-9-9-9-9-9-x-x\-|--------------------|-------------------|
|-9-9-9-9-9-9-9-9-9-9-x-x\-|-6------(6)---------|----------9---9\---|
|-7-7-7-7-7-7-7-7-7-7-x-x\-|-4------(4)---(4)---|-(4)------7---7\---|
|--------------------------|--------------------|----------0--------|


|---------------------------------|
|---------------------------------|
|-2------(2)---(2)--------[9]b13==|
|-2------(2)---(2)------x---------|
|-0------(0)---(0)----x-----------|
|-------------------x-------------|


                                              PM--|
|------------------------------|---------------------|
|------------------------------|---------------------|
|-([9])------([9])r==([9])--x\-|---------------------|
|---------------------------x\-|-4------(4)----------|
|------------------------------|-2------(2)---4-2-4--|
|------------------------------|---------------------|


  ~~~~~~~~~~~             PM----|    PM----|      PM----| ~~~~~~
|--------------------|-----------------------|--------------------|
|--------------------|------------5----------|-5------------------|
|--------------------|-6----------4----------|-4------------------|
|--------------------|-6---------------------|--------------------|
|-6------(6)---6p4p2-|-4--4-4-4-4----4-4-4-4-|----4-4-4-4---------|
|--------------------|-----------------------|------------5---4---|


                                               1st Verse
     PM----|    PM----|      PM----| ~~~~~~         PM----|     PM----|
|-----------------------|--------------------||-------------------------|
|-----------------------|--------------------||-------------------------|
|-6----------6----------|-6------------------||-------------------------|
|-6----------6----------|-6------------------||-11----------11----------|
|-4--4-4-4-4-4--4-4-4-4-|-4--4-4-4-4---------||-11----------11----------|
|-----------------------|------------5---4---||--9--9-9-9-9--9--9-9-9-9-|


      PM------|                    PM----|     PM----|
|----------------12-(12)---||--------------------------|
|----------------12-(12)---||o-------------------------|
|--------------------------||--------------------------|
|-11-----------------------||--11----------11----------|
|-11-----------------------||o-11----------11----------|
|--9--9-9-9-9-9------------||---9--9-9-9-9--9--9-9-9-9-|


      PM------|
                            6x
|----------------12-(12)----||
|----------------12-(12)---o||
|---------------------------||
|-11------------------------||
|-11-----------------------o||
|--9--9-9-9-9-9-------------||


      PM----|     PM----|
|-------------------------|------------------||
|-------------------------|------------------||
|-------------------------|------------------||
|-11----------11----------|------------------||
|-11----------11----------|-11------11\------||
|--9--9-9-9-9--9--9-9-9-9-|--9-------9\------||


|--------------|--------------------------|
|--------------|--------------------------|
|--------------|--------------------------|
|-6------------|-(6)------9---(9)-(9)\----|
|-4------------|-(4)------7---(7)-(7)\----|
|--------------|--------------------------|


                 PM--------|
|--------------|-------------------------|
|--------------|-------------------------|
|-2------------|-4-2-1-------------------|
|-2------------|-------4-2-1-------------|
|-0------------|-------------4p2p0-------|
|--------------|-------------------4p2p0-|


                            ~~~~~~~~~
|------------------|--------------------|
|------------------|--------------------|
|-4------(4)---4---|-(4)---(4)---(4)----|
|-4------(4)---4---|-(4)---(4)---(4)----|
|-2----------------|-(2)----------------|
|------------------|--------------------|


     PM----|    PM----|      PM----|     ~        PM----|    PM----|
|-----------------------|--------------------|------------0----------|
|-----------------------|--------------------|------------0----------|
|-6----------6----------|-6------------------|-6---------------------|
|-6----------6----------|-6------------------|-6---------------------|
|-4--4-4-4-4-4--4-4-4-4-|-4--4-4-4-4---------|-4--4-4-4-4----4-4-4-4-|
|-----------------------|------------5---4---|-----------------------|


                       2nd Verse
            ~~~~~~          PM----|     PM----|       PM------|
                                                                            3x
|-------------------||--------------------------|----------------12-(12)----||
|-------------------||o-------------------------|----------------12-(12)---o||
|-6-----------------||--------------------------|---------------------------||
|-6-----------------||--11----------11----------|-11------------------------||
|-4--4-4------------||o-11----------11----------|-11-----------------------o||
|--------5--4---4---||---9--9-9-9-9--9--9-9-9-9-|--9--9-9-9-9-9-------------||


      PM----|     PM----|       PM--|       ~~~~~~~        PM----|     PM----|
|-------------------------|--------------------------|-------------------------|
|-------------------------|------------17--17-(17)---|-------------------------|
|-------------------------|------------18--18-(18)---|-------------------------|
|-11----------11----------|-11-----------------------|-11----------11----------|
|-11----------11----------|-11-----------------------|-11----------11----------|
|--9--9-9-9-9--9--9-9-9-9-|--9--9-9-9----------------|--9--9-9-9-9--9--9-9-9-9-|


      PM------|                  PM----|     PM----|
|----------------12-(12)---|-------------------------|
|----------------12-(12)---|-------------------------|
|--------------------------|-------------------------|
|-11-----------------------|-11----------11----------|
|-11-----------------------|-11----------11----------|
|--9--9-9-9-9-9------------|--9--9-9-9-9--9--9-9-9-9-|


                       T   ~~
|------------------------------|
|------------------------------|
|------11b13====(11)--14rp11---|
|-11---------------------------|
|-11---------------------------|
|--9---------------------------|


      PM----|     PM----|       PM------|                  PM----|     PM----|
|-------------------------|----------------12-(12)---|-------------------------|
|-------------------------|----------------12-(12)---|-------------------------|
|-------------------------|--------------------------|-------------------------|
|-11----------11----------|-11-----------------------|-11----------11----------|
|-11----------11----------|-11-----------------------|-11----------11----------|
|--9--9-9-9-9--9--9-9-9-9-|--9--9-9-9-9-9------------|--9--9-9-9-9--9--9-9-9-9-|


                   ~~~~~~~~~~~~~~~~~~
|------------------------------------------||
|------------------------------------------||
|------------------------------------------||
|-9s11b14===(11)-(11)---(11)---(11)r=(11)\-||
|------------------------------------------||
|------------------------------------------||


|--------------|--------------------------|
|--------------|--------------------------|
|--------------|--------------------------|
|-6------------|-(6)------/9---(9)-(9)\---|
|-4------------|-(4)------/7---(7)-(7)\---|
|--------------|--------------------------|


                           ~~~~~~~~~~~~~
|----------------------|--21-------(21)--^x-------|
|----------------------|-----------------^x-------|
|-2------(2)---/19s=21-|-(21)------(21)--^x-------|
|-2------(2)-----------|--------------------------|
|-0------(0)-----------|--------------------------|
|----------------------|--------------------19\---|


|--------------------------|--------||
|--------------------------|--------||
|-4------(4)----6p==4---6p=|==4-----||
|-4------(4)----4-------4--|-(4)----||
|-2------(2)---(2)-(2)-(2)-|-(2)----||
|--------------------------|--------||


    PM----------|  ~~~~~~    PM--------|    ~~~~~~
||-------------------------|--------------------------||
||o------------------------|-------------------------o||
||-------------------------|--------------------------||
||-------------------------|--------------------------||
||o---------2---2--4-(4)---|---------2---------------o||
||--0-2-3-4---4------------|-0-2-3-4---4-3--2-(2)-----||


  PM--------|    ~~~~~~    PM--------|    ~~~~~~
|------------------------|------------------------|
|------------------------|------------------------|
|-------------2----------|------------------------|
|----------------4-(4)---|------------------------|
|---------2--------------|---------2--------------|
|-0-2-3-4---4------------|-0-2-3-4---4-3--2-(2)---|


  PM--------|    ~~~~~~    PM--------|    ~
|------------------------|------------------------||
|------------------------|------------------------||
|------------------------|------------------------||
|------------------------|------------------------||
|---------2---2--4-(4)---|---------2--------------||
|-0-2-3-4---4------------|-0-2-3-4---4-3--2--0----||


  Half time feel Q=73
 4/4
                                             ~
|-------------|--------------|-------------|-------------|
|-------------|--------------|-------------|-------------|
|-6S===9S6----|--------------|-6----9S6--4-|-3----3--4---|
|-6S===9S6--6-|-5--------3-4-|-6----9S6--4-|-3----3--4---|
|-4S===7S4--6-|-5----5s6-1-2-|-4----7S4--2-|-1----1--2---|
|-----------4-|-3----3s4-----|-------------|-------------|


                                                 ~
|-------------|--------------|-----------------|-------------||
|-------------|--------------|-----------------|-------------||
|-6----9S6----|--------------|-6--(6)\--9S6--4-|-3----3--4---||
|-6----9S6--6-|-5--------3-4-|-6--(6)\--9S6--4-|-3----3--4---||
|-4----7S4--6-|-5----5-6-1-2-|-4--(4)\--7S4--2-|-1----1--2---||
|-----------4-|-3----3-4-----|-----------------|-------------||


  Bright Rock Q.=146
 12/8
     PM----|    PM----|      PM----| ~~~~~~         PM|      PM----|
|-----------------------|--------------------|------------------------|
|-----------------------|--------------------|----------4-5-----------|
|-----------------------|--------------------|-6--------4-6-----------|
|-6----------6----------|-6------------------|-6----4-6---------------|
|-4--4-4-4-4-4--4-4-4-4-|-4--4-4-4-4---------|-4--4----------4-4-4-4--|
|-----------------------|------------5---4---|------------------------|


     PM----| ~~~~~~
|--------------------|--------------|---------------------------|
|--------------------|--------------|---------------------------|
|-6------------------|-6------------|-(6)---(6)--(6)S9---(9)\---|
|-6------------------|-6------------|-(6)---(6)--(6)S9---(9)\---|
|-4--4-4-4-4---------|-4------------|-(4)---(4)--(4)S7---(7)\---|
|------------5---4---|--------------|---------------------------|


                                     ~~~~~~~~~~~~
|---------------------------------|----------------------|
|---------------------------------|----------------------|
|-2------(2)---(2)--------[9]b13==|=(9)------(9)---6p4p2-|
|-2------(2)---(2)------x---------|----------------------|
|-0------(0)---(0)----x-----------|----------------------|
|-------------------x-------------|----------------------|


|----------------------------|------------------------------------|
|----------------------------|------------------------------------|
|-4------(4)-----------------|------------------------------------|
|-4------(4)--4b5==(4)r(4)p2-|------------------------------------|
|-2------(2)-----------------|-4b7==(4)--(4)---(4)---(4)r(4)p2----|
|----------------------------|------------------------------------|


     PM----|    PM----|      PM----| ~~~~~~       PM----|    PM----|
|-----------------------|--------------------|-----------------------|
|------------5----------|-5------------------|-----------------------|
|------------4----------|-0------------------|-----------------------|
|-6---------------------|--------------------|-6----------6----------|
|-4--4-4-4-4----4-4-4-4-|----4-4-4-4---------|-4--4-4-4-4-4--4-4-4-4-|
|-----------------------|------------5---4---|-----------------------|


                        3rd Verse
     PM----| ~~~~~~          PM----|     PM----|       PM------|
                                                                             3x
|--------------------||--------------------------|----------------12-(12)----||
|--------------------||o-------------------------|----------------12-(12)---o||
|--------------------||--------------------------|---------------------------||
|-6------------------||--11----------11----------|-11------------------------||
|-4--4-4-4-4---------||o-11----------11----------|-11-----------------------o||
|------------5---4---||---9--9-9-9-9--9--9-9-9-9-|--9--9-9-9-9-9-------------||


      PM----|     PM----|       PM----|       ~~~~~~~~
|-------------------------|-----------------------------|
|-------------------------|------------------17--(17)---|
|-------------------------|-------------16--(16)-(16)---|
|-11----------11----------|-----------------------------|
|-11----------11----------|-11--------------------------|
|--9--9-9-9-9--9--9-9-9-9-|--9--9-9-9-9-----------------|


        PM----|     PM----|       PM------|
                                                         3x
||--------------------------|----------------12-(12)-----||
||o-------------------------|----------------12-(12)----o||
||--------------------------|----------------------------||
||--11----------11----------|-11-------------------------||
||o-11----------11----------|-11------------------------o||
||---9--9-9-9-9--9--9-9-9-9-|--9--9-9-9-9-9--------------||


      PM----|     PM----|
|-------------------------|--------------------|
|-------------------------|------x\------------|
|-------------------------|------x\---xS==x\---|
|-11----------11----------|-----------xS==x\---|
|-11----------11----------|-11-----------------|
|--9--9-9-9-9--9--9-9-9-9-|--9-----------------|


|--------------|------------------------------|
|--------------|------------------------------|
|-6------------|-(6)---(6)--6-9---(9)--(9)\---|
|-6------------|-(6)---(6)--6-9---(9)--(9)\---|
|-4------------|-(4)---(4)--4-7---(7)--(7)\---|
|--------------|------------------------------|


|--------------|--------------------|
|--------------|--------------------|
|-2------------|-(2)------(2)---x---|
|-2------------|-(2)------(2)---x---|
|-0------------|-(0)------(0)---x---|
|--------------|--------------------|


|----------------------------|--------------------------|
|----------------------------|--------------------------|
|-4------(4)---(4)--(4)------|--------------------------|
|-4------(4)---(4)--(4)-4b6==|=(4)---(4)r==(4)p=2-------|
|-2------(2)---(2)--(2)------|---------------------4p2--|
|----------------------------|--------------------------|


           ~~~~~~~~~~~
|-----------------|----------------------||
|-----------------|--------------------9-||
|-----------------|--------------------9-||
|-----------------|-------------9-11p9---||
|-4------5s6------|-7------9s11----------||
|-----------------|----------------------||


 Guitar solo
                  ~~~~~~~                           ~~~~~~~         ~~
|---------------------------------|------------------------------------|
|-(9)b9.5-----------------------9-|-(9)b9.5------------------14p12-14--|
|-(9)b9.5-----------------------9-|-(9)b9.5----------------------------|
|-----------11p9-11-(11)---11p9---|-----------11p9-11-(11)-------------|
|---------------------------------|------------------------------------|
|---------------------------------|------------------------------------|


    ~~~~        ~~~~~~~               ~~~
|---------------------------------------|
|-(14)---14p12-14-(14)---14p12h14p12h14-|
|---------------------------------------|
|---------------------------------------|
|---------------------------------------|
|---------------------------------------|


 ~~~~~~~~~~~~~              ~~~~
|--------------------------------12h14h15p14p12--|
|-(14)---(14)-12h14p12h14-(14)-------------------|
|------------------------------------------------|
|------------------------------------------------|
|------------------------------------------------|
|------------------------------------------------|


|-14h15p14p12-14h15p14p12-14h15p14p12-14-15p12h14p11s9-|
|------------------------------------------------------|
|------------------------------------------------------|
|------------------------------------------------------|
|------------------------------------------------------|
|------------------------------------------------------|


|-12p9----9--------------------------------9-------9-------|
|------12---12p9-10p9----9---------------------------------|
|---------------------12---12p9h11p9-11s12---11s12---11s12-|
|----------------------------------------------------------|
|----------------------------------------------------------|
|----------------------------------------------------------|


                                                            ~~~
|-9-------9-------9-------9-------9----------|-----------------------|
|--------------------------------------------|-------------------0---|
|---11s12---11s12---11s12---11s12---11--9h11p|=9-----11--9-(9)---0---|
|--------------------------------------------|----11-----------------|
|--------------------------------------------|-----------------------|
|--------------------------------------------|-----------------------|


|-------------------------------|----------11h12-9-11----9-------12-|
|-10p9-10p9------10p9-10p9------|-10h12h14------------12---12s14----|
|-----------11p9-----------11p9-|-----------------------------------|
|-------------------------------|-----------------------------------|
|-------------------------------|-----------------------------------|
|-------------------------------|-----------------------------------|


|-14h15p14p12-14p12h14p12----------12-|
|-------------------------14-12h14----|
|-------------------------------------|
|-------------------------------------|
|-------------------------------------|
|-------------------------------------|


|-------16-17-19-16-17----16----------|
|-14s18----------------19----19p17p16-|
|-------------------------------------|
|-------------------------------------|
|-------------------------------------|
|-------------------------------------|


                     ~~
|---------------------------|-------------------------------------|
|---------------------------|----------------------------17s16----|
|-18p16---------------------|-------------------16h18h20-------18-|
|-------19-18-16------------|----------16-18h19-------------------|
|----------------19-18------|-16-18h19----------------------------|
|---------------------------|-------------------------------------|


|-------------------------------------|
|-17p16-17p16-------19p16-17p16-------|
|-------------18p16-------------18p16-|
|-------------------------------------|
|-------------------------------------|
|-------------------------------------|


                                            ~~~~~~~~~~~~~
|-----------------------------------19--|-(19)------(19)------|
|-17p16-17p16-19b21===(19)---(19)--(19)-|-(19)------(19)------|
|---------------------------------------|---------------------|
|---------------------------------------|---------------------|
|---------------------------------------|---------------------|
|---------------------------------------|---------------------|


                        ~~~~~~~~~
|-------------------------|------------------------|
|-19r=====(19)---17p16-17-|-(17)---16--------------|
|-------------------------|-------------18---16----|
|-------------------------|------------------------|
|-------------------------|------------------------|
|-------------------------|------------------------|


                      ~~~~~~~~~                              ~~~~~~~~~~~~~
|----------------16-----|----------------------------19--|-(19)------(19)-----------|
|------16---17-------19-|-(19)------(19)---(19)b21--(19)-|-(19)------(19)--x\-----9-|
|-18--------------------|--------------------------------|-----------------x\-----9-|
|-----------------------|--------------------------------|--------------------11----|
|-----------------------|--------------------------------|--------------------------|
|-----------------------|--------------------------------|--------------------------|


|---------------------------------------|--------------------------------|
|-(9)b9.5--------9-(9)b9.5--------9b9.5-|-(9)------(9)-------------------|
|-(9)b9.5--------9-(9)b9.5--------9b9.5-|-(9)------(9)-----9b9.5---------|
|-----------11p9-------------11p9-------|---------------11-------11p0----|
|---------------------------------------|--------------------------------|
|---------------------------------------|--------------------------------|


                                             4x
||----------9---------9---------9---------9--||
||o-------9---------9---------9---------9---o||
||--11b13-----11b13-----11b13-----11b13------||
||-------------------------------------------||
||o-----------------------------------------o||
||-------------------------------------------||


|---------9---------9-------------------------|
|-------9---------9---------------------------|
|-11b13-----11b13-----11b12r(11)p9------11p9--|
|----------------------------------(11)-------|
|---------------------------------------------|
|---------------------------------------------|


  Gtr II
|------------9-(9)------------------|
|------------9-(9)-(9)--(9)--12-----|
|-(9)----9---9-(9)-(9)--(9)--11b13==|
|-------11p9------------------------|
|-----------------------------------|
|-----------------------------------|


                    ||||    |  |||||  |      |
                    ////    /  /////  /      /

|-----------------------|--------------------------|
|-(12)---12---(12)------|-(12)------(12)---(12)\---|
|-(11)--------(11)------|-(11)------(11)---(11)\---|
|-----------------------|--------------------------|
|-----------------------|--------------------------|
|-----------------------|--------------------------|


                                                  ~~~~~~~
|---------------------------------|-----------------------x-|
|---------------------------------|-5p4-5p4---------------x-|
|-[9]----[8]----[7]---6---5---4h6-|---------6p4-6s8--(8)----|
|-----11-----10-----9---8---7-----|-------------------------|
|---------------------------------|-------------------------|
|---------------------------------|-------------------------|


                        ~~~~~~~~                 ~
|-------------------------|--------------------------|
|-----------------4-5p4---|-------4h5p4s5h7p5-10p9---|
|-------------4h6-------6-|-(6)----------------------|
|-------------------------|--------------------------|
|-2h3h4-0h2h4-------------|--------------------------|
|-------------------------|--------------------------|


|----------------------------------------|-----------------------------x--------|
|----------17----------------------------|-----------------------------x--17b22-|
|-14s16s18----18b22====(18)---(18)--(18)-|-(18)r=(18)b22-(18)---(18)------------|
|----------------------------------------|--------------------------------------|
|----------------------------------------|--------------------------------------|
|----------------------------------------|--------------------------------------|


|----------------------------x-|------------------------------||
|-(17)---(17)---(17)---(17)--x-|------------------------------||
|------------------------------|-6s8b11--(8)-(8)---(8)--------||
|------------------------------|------------------------------||
|------------------------------|-------------------------x\---||
|------------------------------|-------------------------x\---||


|--------------|------------------|-------------------------------|
|--------------|------------------|-------------------------------|
|-6------------|-(6)S=====9\------|-2------(2)---(2)--------6b10==|
|-6------------|-(6)S=====9\------|-2------(2)---(2)------x-------|
|-4------------|-(4)S=====7\------|-0------(0)---(0)----x---------|
|--------------|------------------|-------------------x-----------|


|---------------------------------------|
|----------------------------------0----|
|-(6)---(6)r(6)b11-(6)-(6)---(6)\--0----|
|---------------------------------------|
|---------------------------------------|
|---------------------------------------|


                                       Outro
|--------------|---------------------||---------------|-----------------------|
|--------------|---------------------||---------------|-----------------------|
|-4------------|-(4)------(4)---x\---||-6-6--8-8--9-9-|-(9)-11-11--12--13\----|
|-4------------|-(4)------(4)---x\---||---------------|-----------------------|
|-2------------|-(2)------(2)---x\---||-4-4--6-6--7-7-|-(7)--9--9--10--11\----|
|--------------|---------------------||---------------|-----------------------|


|---------------|---------------------|---------------|----------------------|
|---------------|---------------------|---------------|----------------------|
|-6-6--8-8--9-9-|-(9)-11-11--12--13---|-6-6--8-8--9-9-|-(9)-11-11--12--13----|
|---------------|---------------------|---------------|----------------------|
|-4-4--6-6--7-7-|-(7)--9--9--10--11p0-|-4-4--6-6--7-7-|-(7)--9--9--10--11p0--|
|---------------|---------------------|---------------|----------------------|


|----------|----------------|-----------7b9===7--|
|----------|----------------|-----------7b9===7--|
|-6--------|-(6)--4tr6------|-(4tr6)-------------|
|-6--------|-(6)------------|--------------------|
|-4--------|-(4)------------|--------------------|
|----------|----------------|--------------------|


          ~~~~~~~~~~~~~~~~~~~
|-(7)----(7)----|-(7)----(7)----|
|-(7)----(7)----|-(7)----(7)----|
|---------------|---------------|
|---------------|---------------|
|---------------|---------------|
|---------------|---------------|


  Gtr II
   |  |||||||||||||||
   /  ///////////////

|-(7)----------------|-(7)-------------*|
|-(7)----------------|-(7)-------------*|
|--------------------|--------------6--*|
|--------------------|--------------6--*|
|--------------------|--------11\---4--*|
|--------------------|------------0----*|


Tablature Legend
----------------
 h   - hammer-on
 p   - pull-off
 b   - bend
 pb  - pre-bend
 r   - bend release (if no number after the r, then release immediately)
 /\  - slide into or out of (from/to "nowhere")
 s   - legato slide
 S   - shift slide
  - natural harmonic
[n]  - artificial harmonic
n(n) - tapped harmonic
 ~   - vibrato
 tr  - trill
 T   - tap
 TP  - trem. picking
 PM  - palm muting
\n/  - tremolo bar dip; n = amount to dip
 \n  - tremolo bar down
 n/  - tremolo bar up
/n\  - tremolo bar inverted dip
 =   - hold bend; also acts as connecting device for hammers/pulls
 <>  - volume swell (louder/softer)
 x   - on rhythm slash represents muted slash
 o   - on rhythm slash represents single note slash

Misc Legend
-----------
 |  - bar
||  - double bar
||o - repeat start
o|| - repeat end
*|  - double bar (ending)
 :  - bar (freetime)
 $  - Segno
 &  - Coda
  development and support by
dmitry ivanov