rock
 
|tablatures   |lyrics   |discussion forums   |more tabs @ XGuitar.com

Ozzy Osbourne tabs

Black Illusion guitar tab

artist:Ozzy Osbourne
album:Down to Earth
song:Black Illusion
tabbed by:Derek Dobol


intro-verse-w/distortion
----------------------------------------------
----------------------------------------------
-----------4-5-4b----------4-4-4--3-3-3-------
-3-3-3-3----------3-3-3-3--4-4-4--3-3-3--6-6--
-3-3-3-3----------3-3-3-3--2-2-2--1-1-1--6-6--
-1-1-1-1----------1-1-1-1----------------4-4--


verse-w/distortion
-----------------------------------------------
-----------------------------------------------
-----------------------------------------------
---------3-3----------3-3----------3-3---------
---------3-3----------3-3----------3-3-2b-1b---
-1-1-1-1-1-1--1-1-1-1-1-1--1-1-1-1-1-1------4--


-----------------------------------------------
-----------------------------------------------
-----------------------------------------------
---------3-3----------3-3----------3-3---------
---------3-3----------3-3----------3-3---1b-2b-
-1-1-1-1-1-1--1-1-1-1-1-1--1-1-1-1-1-1-4b------


chorus-w/distortion

-----------------------
-------------------0---
-------------------0---
-7--5--8--x--7--5--8---  <--- not exactly sure 100 % sure about this...
-7--5--8--x--7--5--9---
-5--3--6--x--5--3--7---



Well heres another kick ass
song from ozzy's new album.
As for the solo...im working
on it, peace.
  development and support by
dmitry ivanov