rock
 
|tablatures   |lyrics   |discussion forums   |more tabs @ XGuitar.com

Ozzy Osbourne tabs

A.V.H. guitar tab

Tune down 1/2 step: Eb Ab Db Gb Bb Eb

|--------------------|----------------------|-------------------
|---/12---8/9--------|---7---7--7/9--9~~-\\7-|-------------------
|-------------9~~--\\-|---7---7--7/9--9~~-\\7-|-------------------
|--------------------|----------------------|-------------------
|--------------------|----------------------|-------------------
|-0------------------|-0---0----------------|-------------------

                      ((1st time==============||((2nd time=============
|--------------------|------------------------||----------------
|---/12---8/9--------|-----12----12/13-/13--\\-||---9-8-7-\\--\\---
|-------------9~~--\\-|--12----12-------/14--\\-||---9-8-7-\\--\\---
|--------------------|------------------------||-------7-\\--\\---
|--------------------|------------------------||----------------
|-0------------------|------------------------||-0--------------

|-------0--------------0--------------------0--------------x\\---
|-------0--------------0--------------------0--------------x\\---
|-7--7--9--------7--7--9--------------7--7--9-----------2-------
|-7--7--9--------7--7--9--------------7--7--9-----------2-------
|-5--5--7--------5--5--7--------------5--5--7-----------0-------
|--------------------------/19\\-\\-------------------3^----------

                                 ((1st time====================))
|--------------------------------|------------------------------|
|--------------------------------|------------------------------|
|-x-x---x---x-x-----x14p12--12h13|-x-x---x---x-x-----x-x--------|
|-x-x-9-x11-x-x12p9-x-----14-----|-x-x-9-x11-x-x12p9-x-x--14\\---|
|--------------------------------|------------------------------|
|--------------------------------|------------------------------|
|                                |                              |
|--------------------------------|------------------------0-----|
|--------------------------------|------------------------5-----|
|--------------------------------|------------------------4-----|
|--------------------0-7-0---5p0-|------------------------2-----|
|-----2----4-----5p0-------7-----|-----2----4-----5p0-0-0-------|
|-0-0----0---0-0-----------------|-0-0----0---0-0---------------|

((2nd time==========))
|--------------------|
|--------------------|
|-x-x----x-----x-----|
|-x-x-9--x-11--x-12--|
|--------------------|
|--------------------|
|                    |
|--------------------|
|--------------------|
|--------------------|
|-----4----6-----7---|
|-----2----4-----5---|
|-0-0----0-----0-----|

"I get up and I get down..."
|-0-------------------------------------------------------------
|-0-------------------------------------3-----------------------
|-9------------x-11-12-----------12\\----2-------2----2----------
|-9------------x-10-12-----------12\\----0-------2----2--0-------
|-7------------x--9-10-----------10\\----0-------0----0--0-------
|---------------------------------------------------------------

"I love the feeling when the magic is just right."
|-------0---------|-----------------|-----------------|-----------------------------|
|-3---3-----3-----|-------5---------|-------3---------|-----------------------------|
|-2-2---------2---|-----2-----2-----|-----2-----2-----|-7/9-xx-9/11xx11/13-xx-13/14-|
|-0-------------0-|---2---------2---|---2---------2---|-----------------------------|
|-0---------------|-4-------------4-|-3-------------3-|-5/7-xx-7/9-xx-9/11-xx-11/12-|
|-----------------|-----------------|-----------------|-----------------------------|

"Riding on a train that I cant control..."
|----------------------------------------|
|-3--------------------------------------|
|-0----------------2-----2---------2-----|
|-0----------------2-----2---------2-----|
|------------------0-----0--PH-----0-----|
|-3---2---0---3^------------3^~~------3^-|

Solo:
|---------------------------------12----------------------------
|-5--------8-------10-----12----12---15^~~~~~~~~~~~~~~~~~~~-----
|-7^~~~~--10^~~~~--12^~~--14^~~---------------------------------
|---------------------------------------------------------------
|---------------------------------------------------------------
|---------------------------------------------------------------

|-15-------17^~~--15-------17^~~--15-------17^~~-|
|----17p15-----------17p15-----------17p15-------|
|------------------------------------------------|
|------------------------------------------------|
|------------------------------------------------|
|------------------------------------------------|

|-17^--p15----17----15-16------------|/12-----------12------------------------|
|----------17----17-------17-17~~~-\\-|----15p12--------15p12----12------------|
|------------------------------------|----------14^----------14----14^-p12~~~-|
|------------------------------------|-------------------------------------14-|
|------------------------------------|----------------------------------------|
|------------------------------------|----------------------------------------|

|-12h14~~~--12~~~---------12-9-12-9-|-12h14~~~--12~~~--x14^-----|
|-------------------12h14-----------|------------------x--------|
|-----------------------------------|---------------------------|
|-----------------------------------|---------------------------|
|-----------------------------------|---------------------------|
|-----------------------------------|---------------------------|

|-14^--14^-p12-14p12----/17-|-1917161716161614--14---------------------------|
|--------------------15-----|-----------------17--1714-17p15p14--------------|
|---------------------------|-----------------------------------16^-p14-16~~-|
|---------------------------|------------------------------------------------|
|---------------------------|------------------------------------------------|
|---------------------------|------------------------------------------------|

|-12h14~~--12~~~--------12----14----|-12h14~~~-12~~~------------|
|-----------------12h14----14----14-|-------------------19^-----|
|-----------------------------------|---------------------------|
|-----------------------------------|---------------------------|
|-----------------------------------|---------------------------|
|-----------------------------------|---------------------------|

|-19---------19-----19-----|-7---------7----------7----------7----------|
|----19^-19^----19^----19\\-|--10p7-10^---10p7-10^---10p7-10^---10p7-10^-|
|--------------------------|--------------------------------------------|
|--------------------------|--------------------------------------------|
|--------------------------|--------------------------------------------|
|--------------------------|--------------------------------------------|

|-10-----------10-----------12-----------12--------------15^~~~~~-|
|----13p10-13^----13p10-13^----15p12-15^----15p12-----------------|
|-------------------------------------------------14p12-----------|
|-----------------------------------------------------------------|
|-----------------------------------------------------------------|
|-----------------------------------------------------------------|
  development and support by
dmitry ivanov