rock
 
|tablatures   |lyrics   |discussion forums   |more tabs @ XGuitar.com

Offspring tabs

What Happened To You guitar tab

Date: Sat, August 2 1997
From: Peter Ferragine (iginition@yesic.com)
Group: Offspring
Album: SMASH
Released: 1994 epitaph records 
Track: 11
Title: what happened to you?

* - repeat
b - bend


intro

|------------------------------------------------------------------|
|------------------------------------------------------------------|
|--------10-10-10----------10-10-10-------10-10-10----------10-9-8-|
|-8--10--10-10-10-10-10-10-10-10-10-8-8-8-10-10-10-10-10-10-10-9-8-|
|-8--10--8--8--8--10-10-10-8--8--8--8-8-8-8--8--8--10-10-10-8--7-6-|
|-6--8------------8--8--8-----------6-6-6----------8--8--8---------|

verse

|-----------------------------------------*-|----------------|
|-----------------------------------------*-|----------------|
|-7-7-7-7---------------------10-10-10-10-*-|--7---------10--|
|-7-7-7-7-8-8-8-8-10-10-10-10-10-10-10-10-*-|--7--8--10--10--|
|-5-5-5-5-8-8-8-8-10-10-10-10-8--8--8--8--*-|--5--8--10--8---|
|---------6-6-6-6-8--8--8--8--------------*-|-----6--8-------|

chorus

|-----------------------------------------*-|
|-----------------------------------------*-|
|-7-7-7-7---------10-10-10-10-------------*-|
|-7-7-7-7-8-8-8-8-10-10-10-10-10-10-10-10-*-|
|-5-5-5-5-8-8-8-8-8--8--8--8--10-10-10-10-*-|
|---------6-6-6-6-------------8--8--8--8--*-|

solo - verse chords are also played

|---------------------------------|-------------------------------|
|---------------------------------|----------------------8-8------|
|-----------5--7--5--7b--7--5---5-|-----------5--7--5-7b-----7--5-|
|------5--7-------------------7---|------5--7---------------------|
|-5--8----------------------------|-5--8--------------------------|
|---------------------------------|-------------------------------|

|--------------------------------------------10----10b-13-10-13-15-
|--------------------------------------10-13----13-----------------
|-------------------10-12-10-12b-10-12-----------------------------
|-------------10-12------------------------------------------------
|-------10-12------------------------------------------------------
|-10-13------------------------------------------------------------

 -13-15b-15b-15-13----------13-|
 ------------------15-13-15----|
 ------------------------------|
 ------------------------------|
 ------------------------------|
 ------------------------------|

outro

|-------------------------|
|-------------------------|
|--------10---10-10----10-|
|-8-10-*-10-8-10-10-10-10-|
|-8-10-*-8--8-8--8--10-8--|
|-6-8--*----6-------8-----|

lyrics

before you started tokin'
you used to have a brain
but now you don't get even the simplest of things
i can draw a little picture 
or even use my hands
i try to explain but you just don't understand
man you're really losin' it
and you've really done a lot of junk now
but you keep on abusin' it
what in the world happened to you
it's bad enough you do it to yourself
but taking someone with you
well you know that's something else
i say i'm not that kind of person
i'm not that kind of man
i try to explain but you just don't understand
i might be sympathetic or cut a little slack
if i thought that you were willing to give a little back
but you do it in the morning 
you do it in the night 
you lie to refrain from just facing your life
so i'll see you man tomorrow
you'll be gackin' up again
i'll see you in your coffin by the time your wad is spent
i think of all the times that i try to lend a hand
i try to explain but you just don't understand
  development and support by
dmitry ivanov