rock
 
|tablatures   |lyrics   |discussion forums   |more tabs @ XGuitar.com

Offspring tabs

We Are One guitar tab

Album: Ignition
Year: 1992
Track: 2
Title: We are one

# intro #   X 4     / or \ =slide 
E--------------------------------------------------|
B--------------------------------------------------|
G---9-/12--12-\7--7-7-7-7-7-7-7--6-6-6--7-7-7--6---|
D---7-/10--10-\5--5-5-5-5-5-5-5--4-4-4--5-5-5--4---|
A--------------------------------------------------|
E--------------------------------------------------|

# intro2 #    *=play 7X                      # intro3 #   *=play 7X
E-------------------------------|            E--------------------------|
B--------*----------------------|            B--------*-----------------|
G----*--5----*--7-7-7-7--5------|            G----*--5----*--7-7--5-5---|
D---7---5---5---7-7-7-7--5--5---|   then >   D---7---5---5---7-7--5-5---|
A---7---3---5---5-5-5-5--3--5---|            A---7---3---5---5-5--3-3---|
E---5-------3---------------3---|            E---5-------3--------------|

# verse #    *=play 7X                       # verse2 #    *=play 7X
E-------------------------------|            E---------------|
B--------*----------------------|            B--------*------|
G----*--5----*--7-7-7-7--5------|            G----*--5-------|
D---7---5---5---7-7-7-7--5--5---|   then >   D---7---5---5---|
A---7---3---5---5-5-5-5--3--5---|            A---7---3---5---|
E---5-------3---------------3---|            E---5-------3---|
    \_____palm-mute_________/                    \p-mute_/

# chorus #   X 2 (brackets only once) *=play 7X
E-----------------------------------------------|
B------------------------*----------------------|
G--(7-7-7-7--5---)---*--5----*--7-7-7-7--5------|
D--(7-7-7-7--5--5)--7---5---5---7-7-7-7--5--5---|
A--(5-5-5-5--3--5)--7---3---5---5-5-5-5--3--5---|
E--(------------3)--5-------3---------------3---|

Play intro2 X2, verse, verse2 and chorus. 

# bridge #   X 2   *=play 7X                # bridge2 #    *=play 7x
E--------------------------------|          E--------------------------------|
B--------*-----------------------|          B--------*-----------------------|
G----*--5----*-------------------|          G----*--5----*-------------------|
D---7---5---5--4-4-4--5-5-5--4---|  then >  D---7---5---5--4-4-4--5-5-5--4---|
A---7---3------------------------|          A---7---3------------------------|
E---5----------------------------|          E---5----------------------------|
    \p-m/

# bridge3 #    *=play 7X   **=play 12-14X
E-------------------------------------------------------------|
B--------*----------------------------------------------------|
G----*--5----*---------------------------------------------**-|
D---7---5---5--4-4-4--5-5-5-5-5--4-4-4--5-5-5-5-5--4-4-4--5---|
A---7---3-----------------------------------------------------|
E---5---------------------------------------------------------|

Play intro2 X2, verse, verse2 and chorus.

# bridge4 #  X 2  *=play 7X    # outro #    X 8     *=play 7X
E----------------------|       E----------------------------|
B--------*---*---------|       B--------*-------------------|
G----*-10---7---5------|       G----*-10----*--------5------|
D---7--10---7---5--5---|       D---7--10---5--4-4-4--5--5---|
A---7---8---5---3--5---|       A---7---8-------------3--5---|
E---5--------------3---|       E---5--------------------3---|
    \___palm-mute__/

->Play INTRO2.
  development and support by
dmitry ivanov