rock
 
|tablatures   |lyrics   |discussion forums   |more tabs @ XGuitar.com

Offspring tabs

We Are One bass tab

INTRO
G:---------------------------------------------------------------
D:---------------------------------------------------------------
A:-0-------------------------------------------------------------
E:---------------------------------------------------------------

VERSE/CHOROS
G:---------------------------------------------------------------
D:---------------------------------------------------------------
A:0>----3>-------------5>------3---------------------------------
E:-------------3>---------------------3--------------------------


OUTRO
G:---------------------------------------------------------------
D:---------------------------------------------------------------
A:0>----8>-------------5>------3---------------------------------
E:-------------3>---------------------3--------------------------
  development and support by
dmitry ivanov