rock
 
|tablatures   |lyrics   |discussion forums   |more tabs @ XGuitar.com

Offspring tabs

Want You Bad bass tab

Song/Want you bad
Band/Offspring
troygrech@hotmail.com


INTRO X4
G|---------------------|
D|---------------------|
A|-7-------------------|
E|-----7-7---5-5---9-7-|


Fill1
G|-----------------------------------|
D|-----------------------------------|
A|-777777777777777777777777777777777-|
E|-----------------------------------|

Verse
(accent with guitar)
G|-----------------------------------------------------------------------|
D|-----------------------------------------------------------------------|
A|-7777777777777777------------------------------------------------------|
E|-----------------7/9999999999999999\\7777777777777777-------------------|

Bridge
G|---------------------------------|
D|---------------------------------|
A|-------------------------7-7-7-7-|
E|-5-5-5-5-7-7-7-7-9-9-9-9---------|


G|-----------------------------------------------------|
D|-----------------------------------------------------|
A|-----------------------------------------------------|
E|-5-5-5-5-7-7-7-7-9-9-9-9-7---------------------------|

Chorus
G|-----------------------------------------------------------------------|
D|-----------------------------------------------------------------------|
A|-7-7-77-7-7-7-77-7-----------------------------------------------------|
E|-------------------9-9-99-9-9-9-99-9-7-7-77-7-7-7-77-7-5-5-4-4-5-5-7-7-|

Fill2
G|---------------------------------|
D|---------------------------------|
A|-7-7-7-7-7-7-7-7-7-7-7-7-7-7-7-7-|
E|---------------------------------|

Bridge 2
G|-----------------------------------------------------------------|
D|---------------------------------7-7-7-7-7-7-7-7-----------------|
A|-7-7-7-7-7-7-7-7-5-5-5-5-5-5-5-5-----------------7-7-7-7-7-7-7-7-|
E|-----------------------------------------------------------------|


Guitar Solo Part
G|---------------------------------------------------------|
D|---------------------------------------------------------|
A|---------------------------------------7-7-777-7-77-7777-|
E|--7-7-777-7-77-7777-5-5-555-5-55-5555--------------------|



G|---------------------------------------------------------------------------|
D|---------------------------------------------------------------------------|
A|----------------------------------------7-7-777-7-77-7777 7-7-777-7-77-7777|
E|-7-7-777-7-77-7777--5-5-555-5-55-5555--------------------------------------|

YOUR MUM!!!!!!
  development and support by
dmitry ivanov