rock
 
|tablatures   |lyrics   |discussion forums   |more tabs @ XGuitar.com

Offspring tabs

Walla Walla guitar tab

Album: Americana

Year: 1998

Track: 8

Title: Walla Walla

Revised by: Christian Per'O



Intro

E|-------------------------------|

B|-------------------------------|

G|-------------------------------|

D|--3--3---3--3--3--2--0---------|

A|-------------------------------|

E|-------------------------------|



E|---------------------------------------------------------------------|

B|---------------------------------------------------------------------|

G|---------------------------------------------------------------------|

D|---------------------------------------------------------------0--2--|

A|--3--3---3--3--3--2--0-----------------0--2--3--3---3--3--3----------|

E|--------------------------3---3--3--3--------------------------------|





E|-----------------------------------------------------------------------------------|

B|-----------------------------------------------------------------------------------|

G|--------------------------------------------------------------------------5--5--5--|

D|--3--3---3/5--3--2--0------------------------------------------------5--5--5-------|

A|------------------------3--3---3--3--3--2--0-----------------0--2--3--3--3---------|

E|-----------------------------------------------3--3---3--3--3----------------------|





*= Play 10 times

%=Play 4 times, and release inbetween each

  time you strike the strings with the pick   

/=Slide up 



Verse 4X

E|-------------------------------|-------------------------------------------|

B|--------*----------------------|------*------------------------------------|

G|-*-------5-----*------%--------|-*-----3---*----%--------------------------|

D|--3------5------5------10------|--3----3----3----10------------------------|

A|--3------3------5------10------|--3----5----3----10------------------------|

E|--1-------------3------8-------|--1---------5----8-------------------------|

   \________________Palm Mute__________________/    \-Dont palm mute this



Chorus

@=Play 9 times

&=Play 12 times

!=Play 12 times

$=play 7 times

E|-------------------------------|--------------------------------------------|

B|------@-----------&------------|---!----------------------------------------|

G|--5----7--/--9--/--10----------|----5----*----$------$----------------------|

D|--5----7--/--9--/--10----------|----5-----5----10--/--13--------------------|

A|--3----5--/--7--/--8-----------|----3-----5----10--/--13--------------------|

E|-------------------------------|----------3----8---/--11--------------------|



intro



Pre chorus2-2X

<  =Play 4 times

On 2'nd time around do not palm mute last note (8, 10, 10)

E|-----------------------|

B|------<----------------|

G|-<-----5---<----%------|

D|--3----5----5----10----|

A|--3----3----5----10----|

E|--1---------3----8-----|

  \_______Palm Mute___/





Pre Outro chorus mix-2X

This is kinda tricky, you'll have to listen to the song



Palm mute everything, 

when your playing, mute it and release the mute on EACH NOTE and 

strike it a couple times without muting it

Again, on 2'nd time around do not palm mute last note AT ALL(8, 10, 10)

E|-----------------------|

B|------*----------------|

G|-*-----5---*----%------|

D|--3----5----5----10----|

A|--3----3----5----10----|

E|--1---------3----8-----|



Verse 4X

E|-------------------------------|-------------------------------------------|

B|--------*----------------------|------*------------------------------------|

G|-*-------5-----*------%--------|-*-----3---*----%--------------------------|

D|--3------5------5------10------|--3----3----3----10------------------------|

A|--3------3------5------10------|--3----5----3----10------------------------|

E|--1-------------3------8-------|--1---------5----8-------------------------|

   \________________Palm Mute__________________/    \-Dont palm mute this



Chorus

E|-------------------------------|--------------------------------------------|

B|------@-----------&------------|---!----------------------------------------|

G|--5----7--/--9--/--10----------|----5----*----$------$----------------------|

D|--5----7--/--9--/--10----------|----5-----5----10--/--13--------------------|

A|--3----5--/--7--/--8-----------|----3-----5----10--/--13--------------------|

E|-------------------------------|----------3----8---/--11--------------------|



Goto Intro

  development and support by
dmitry ivanov