rock
 
|tablatures   |lyrics   |discussion forums   |more tabs @ XGuitar.com

Offspring tabs

Walla Walla bass tab

Song: Walla Walla
Artist: The Offspring
Album: Americana

Verse
G-------------------------------------------
D--3-3-3-3-3--------------------------------
A------------3-3-3-3-3-----------3-3-3-3-3--
E----------------------3-3-3-3-3------------

Chorus
G-----------------------------------------------------
D----------------2h3-3-3-3-3--------------------------
A--5-5-5-5-5-5-5-------------3-3-3-3-3-3--------------
E----------------------------------------3-3-3-3-3-3--

This tab was created by Christian Mangs. Email me at:
Shadow145@hotmail.com
  development and support by
dmitry ivanov