rock
 
|tablatures   |lyrics   |discussion forums   |more tabs @ XGuitar.com

Offspring tabs

Vultures guitar tab

Website: The Offspring.com (http://www.theoffspring.com)
Tabbed By: per (per@coolast.com)
Tabbed For: Guitar
Song Title: Vultures
Album: Conspiracy Of One
Tab:
----------------------------------------------------------
intro    6x
riff1    3x
bridge1  1x
riff2    3x
bridge2  1x
intro    3x
riff1    3x
bridge1  1x
riff2    3x
bridge2  1x
riff2    3x
bridge   1x
solo     1x
riff1    3x
bridge1  1x
riff2    3x
bridge2  1x
riff2    3x
bridge2  1x
let the last chord on the bridge2 ring..


Intro:
e|----------------------------------------------------------------
B|----------------------------------------------------------------
G|----------------------------------------------------------------
D|---2------2------2--------2--------2------2------2--------2-----
A|-0---0--3---3--2---3--2-3---0----0---0--3---3--2---3--2-3---3---
E|----------------------------------------------------------------

riff1:
e|----------------------------------------------------------------
B|----------------------------------------------------------------
G|----------------------------------------------------------------
D|-2-2-2--2-2-2---------------------------------------------------
A|-0-0-0--3-3-3----2-------3--------------------------------------
E|---------------2---3-2-2---2------------------------------------

bridge1:
e|----------------------------------------------------------------
B|----------------------------------------------------------------
G|----------------------------------------------------------------
D|-2-2-2-2-2-2-2-2-2-2-2-2-2--2:-2:-------------------------------
A|-0-0-0-0-0-0-0-0-0-0-0-0-0--0:-0:-------------------------------
E|----------------------------------------------------------------

Riff2:
e|----------------------------------------------------------------
B|----------------------------------------------------------------
G|----------------------------------------------------------------
D|-2-2-2--2-2-2---------------------------------------------------
A|-0-0-0--3-3-3----2---------2------------------------------------
E|---------------2---3-2-2-2---3----------------------------------

Bridge2:
e|----------------------------------------------------------------
B|----------------------------------------------------------------
G|----------------------------------------------------------------
D|-2-2-2-2-2-2-2--2:-2:--2-2-2-2-2-2-2--2:-2:---------------------
A|-0-0-0-0-0-0-0--0:-0:--3-3-3-3-3-3-3--3:-3:---------------------
E|----------------------------------------------------------------

Solo: (use some cool zoom effect)
e|----------------------------------------------------------------
B|----------------------------------------------------------------
G|----------------------------------------------------------------
D|---1/2---2-----2-------1/2---2h3r2r0---2-----2------------------
A|-0-----3---3-2---3~--0-----3---------3---3-2---0----------------
E|----------------------------------------------------------------
Solo part2:
e|----------------------------------------------------------------
B|----------------------------------------------------------------
G|------------------5/7-------------------------------------------
D|---1/2----2/4-2----------2-----2--------------------------------
A|-0-----3--------3------0---3-2---3------------------------------
E|----------------------------------------------------------------
----------------------------------------------------------
  development and support by
dmitry ivanov