rock
 
|tablatures   |lyrics   |discussion forums   |more tabs @ XGuitar.com

Offspring tabs

Vultures bass tab

Offspring
Vultures from conspiracy of one

Normal tuning
(for the e-string 5th fret you can also use a-string 0 fret either one is okay.)

Intro/main part
G----------------------------------------------------------------------------
D---------------------------------------------------------------------------
A--------------------3----3-----2----2----2-------------------2----------
E---------5----5-------------------------------0----0----3---------3-----

Bridge
G---------------------------------------------------------------------------
D---------------------------------------------------------------------------
A--------5------5—5-----8----8---8----------------3----3----0----0---3
E-----------------------------------------5---5---5-------------------------

Chorus
B---------------------------------------------------------------------------
D---------------------------------------------------------------------------
A------------------------3---3------3---------------------------------------
E--------5---5-------5--------------------0---0------0------0------0-----0

That’s basically it, this is only my second tab so it’s probably not perfect.
  development and support by
dmitry ivanov