rock
 
|tablatures   |lyrics   |discussion forums   |more tabs @ XGuitar.com

Offspring tabs

The Worst Hangover Ever guitar tab

Band: The Offspring
Song: The Worst Hangover Ever
Album: Splinter
Year: 2003
HeterophobicTWAT

Intro/Verse:
e|-6--6--6--6---4--4---2--2--|
b|-7--7--7--7---6--6---4--4--|
G|-6--6--6--6---6--6---4--4--|
D|---------------------------|
A|---------------------------|
E|---------------------------|

Chorus:
e|-6--6--6--6---9---9----7--7--|
b|-7--7--7--7---9---9----7--7--|
G|-6--6--6--6---10--10---8--8--|
D|-----------------------------|
A|-----------------------------|
E|-----------------------------|

Middle 8:
e|-1-1-1-1--2-2-2-2--6-6-6-6-6-6-6-6--4-4-4-4-4-4-4-4-|
b|-3-3-3-3--4-4-4-4--7-7-7-7-7-7-7-7--4-4-4-4-4-4-4-4-|
G|-3-3-3-3--4-4-4-4--6-6-6-6-6-6-6-6--5-5-5-5-5-5-5-5-|
D|----------------------------------------------------|
A|----------------------------------------------------|
E|----------------------------------------------------|
  development and support by
dmitry ivanov