rock
 
|tablatures   |lyrics   |discussion forums   |more tabs @ XGuitar.com

Offspring tabs

The Worst Hangover Ever bass tab

Band: The Offspring
Song: The Worst Hangover Ever
Album: Splinter
Tabbed By: Erik Stromberg

Intro
G --------------------------------------------
D -----------4--4-4---------------------------
A -------1-4--------6-4-4--4-4---4-2--2-2-1---
E -5\\2-2-----------------------4------------4-

G ---------------------------------------------
D ------------4--4-4---------------------------
A --------1-4--------6-4-4--4-4---4-2--2-2-1---
E -2--2-2-----------------------4------------4-

G -----------------------6--6-6---6-4--4-4----------------
D ------------4--4-4------------6----------6-4-4--4-4-----
A --------1-4--------6-4------------------------------6-4-
E -2--2-2-------------------------------------------------

G ----------------------------------
D ----------------------------------
A --------1-4-4--4-4---4-2--2-2-1---
E -2--2-2------------4------------4-

Verse
G ----------------------------------
D ----------------------------------
A -----4-6-4--4--4-4---4-2--2-2-1--- X4
E -2-2---------------4------------4-

Chorus
G ---------------------------------------------
D ------------4--4-4---------------------------
A --------1-4--------6-4-4--4-4---4-2--2-2-1--- X2
E -2--2-2-----------------------4------------4-

G -----------------------6--6-6---6-4--4-4----------------
D ------------4--4-4------------6----------6-4-4--4-4-----
A --------1-4--------6-4------------------------------6-4-
E -2--2-2-------------------------------------------------

G ----------------------------------
D ----------------------------------
A --------1-4-4--4-4---4-2--2-2-1---
E -2--2-2------------4------------4-

Verse X4
Chorus

Riff
G -------------------------------------------------------------
D -------------------------------------------------------------
A -1-1-1-1-1-1-1-1-2-2-2-2-2-2-2-2----1-4----1-4----1-4----1-4-
E ---------------------------------2------2------2------2------

G -------------------------------------------
D -------------6--6-6-4-4--------------------
A -----3-6-6-3------------6-4--4---4--4--5\\0-
E -4-4---------------------------------------

Verse X4

Chorus
G ---------------------------------------------
D ------------4--4-4---------------------------
A --------1-4--------6-4-4--4-4---4-2--2-2-1--- X2
E -2--2-2-----------------------4------------4-

G -----------------------6--6-6---6-4--4-4----------------  I
D ------------4--4-4------------6----------6-4-4--4-4-----  I
A --------1-4--------6-4------------------------------6-4-  I x2
E -2--2-2-------------------------------------------------  I

Outro
G ------------------------------------
D ------------------------------------
A -1-1-1-1-1-1-1-1-2-2-2-2-2-2-2-2----
E ---------------------------------2>-
  development and support by
dmitry ivanov