rock
 
|tablatures   |lyrics   |discussion forums   |more tabs @ XGuitar.com

Offspring tabs

The Noose bass tab

Artist: The Offspring
Song: The Noose
Album: Splinter
Bassist: Greg K.
Tuning: Standard

Intro  0:10                         2x
G|----------|----------------------------------------------|-------------|
D|----------|--------------------------7-------------------|-------------|
A|-7777/19\\-|-77777--------------55555---55-777-9-10-10-99-|-------------|
E|----------|-------00-33333-0-3---------------------------|-0~-0~-0~-0~-|

G|-------------------------|
D|-------------------------|2x
A|-777-5-777-5-777-5-777-5-|
E|-------------------------|

Verse
G|-------------------------------------------------|
D|-------------------------------------------------|
A|-777-5-777-5-------------555-3-555-3-777-5-777-5-|
E|-------------333-2-333-2-------------------------|

G|---------------------------------------|
D|---------------------------------------|
A|-777-5-777-5-------------555-3-555-3-7-|
E|-------------333-2-333-2---------------|

G|-------------------------------------------------|
D|-------------------------------------------------|
A|-777-5-777-5-------------555-3-555-3-777-5-777-5-|
E|-------------333-2-333-2-------------------------|

G|------------------------------------------|
D|------------------------------------------|
A|-777-5-777-5------------------------------|
E|-------------333-2-3333-222222222222-3333-|

Chorus
G|-----------------------------------------|
D|-----------------------------------------|
A|7777777-5------------5555-3-555-77777777-|
E|----------3333-2-333---------------------|

Verse
G|----------------------------------------------|
D|----------------------------------------------|
A|-7777-5-77--------------5555-3-55-77777-5-777-|
E|-----------2-3333-2-333-----------------------|

G|--------------------------------------------------------------------|
D|--------------------------------------------------------------------|
A|-7777-5-77-------------------------------/9999999999999-10-10-10-10-|
E|-----------2-3333-2-333-2222222222222222/---------------------------|

Chorus
G|-----------------------------------------|
D|-----------------------------------------|
A|7777777-5------------5555-3-555-77777777-|
E|----------3333-2-333---------------------|

G|------------------------------------------|
D|------------------------------------------|
A|7777777-5------------5555-3-555-7777-10-9-|
E|----------3333-2-333----------------------|

-------------------------------
BRIDGE                        |
-2nd part of intro            |
-chorus                       |
--3rd part of intro           |

G|----------------------|
D|----------------------|
A|---------55~-7777/19\\-|
E|-00~-33~--------------|

-second part of intro

"No more!"  (repeat until chorus)
G|-----------------------------------------------|
D|-----------------------------------------------|
A|-5/7----7--------------3/5----5----5/7----7----|
E|-----00---00-2/3333-33-----00---00-----00---00-|

-chorus 2x

Outro
G|----------------|
D|----------------|
A|----------------|
E|-0~-0~-0~-0~-0~-|
  development and support by
dmitry ivanov