rock
 
|tablatures   |lyrics   |discussion forums   |more tabs @ XGuitar.com

Offspring tabs

The Meaning Of Life guitar tab

Album: Ixnay on the Hombre
Year: 1997
Track: 2
Title: The meaning of life

# INTRO #
E----------------------------------------------------|
B----------------------------------------------------|
G---7--10-7-5-10--10-7-10-12---12/13-12-10-7--10-5---|
D---7--10-7-5-10--10-7-10-12---12/13-12-10-7--10-5---|
A---5---8-5-3--8---8-5--8-10---10/11-10--8-5---8-3---|
E----------------------------------------------------|

# INTRO2 #   *=play 4X         (brackets X4)
E----------------------------------------------------------------------|
B----*-------------*-------*-------------------------------------------|
G---7--10-7-5-10--10-7-10-12---12/13-12-10-------------10-5--7--(5-7)--|
D---7--10-7-5-10--10-7-10-12---12/13-12-10-------------10-5--7--(5-7)--|
A---5---8-5-3--8---8-5--8-10---10/11-10--8--8---8--7----8-3--5--(3-5)--|
E----------------------------------------------------------------------|

Wait after the bass playing before begin VERSE..if you want an adapted version of bass
playing, just play VERSE but with the firts cord. 

# VERSE #  *=play 15 - 16X   (some of the chords with muting)
E----------------------------------------|
B----*------*---*------------------------|
G---7---9-10---5---3-3--3-3-3-3-3-3--2---|   m=mute
D---7---9-10---5---3-3--3-3-3-3-3-3--2---|
A---5---7--8---3---1-1--1-1-1-1-1-1--0---|
E----------------------------------------|


# CHORUS #    *=play 5X - 6X if you play fast 
E------------------------------------------------------------------------->
B----*---*--*---*-------*----*---*---*--------*---*---*---*--------------->
G---7---3--5--10---5----7---3---5---2---5----7---3---5--10---5-7--3--5---->
D---7---3--5--10---5----7---3---5---2---5----7---3---5--10---5-7--3--5---->
A---5---1--3---8---3----5---1---3---0---3----5---1---3---8---3-5--1--3---->
E------------------------------------------------------------------------->

>E----------------------|
>B----------------------|
>G--10----10----10------|
>D--10-10-10-10-10-10---|
>A---8-10--8-10--8-10---|
>E------8-----8-----8---|

# BRIDGE #    *=play 4X
E-------------------------------------------------------|
B----*-------------*-------*------------------*---------|
G---7--10-7-5-10--10-7-10-12---12/13-12-10---7--10--5---|
D---7--10-7-5-10--10-7-10-12---12/13-12-10---7--10--5---|
A---5---8-5-3--8---8-5--8-10---10/11-10--8---5---8--3---|
E-------------------------------------------------------|

Then play INTRO2 (without the brackets), VERSE and CHORUS.

# BRIDGE2 #      m=mute     brackets=X3
E---------------------------------------------------------------|
B---------------------------------------------------------------|
G--(7-7-7-10-10-10-10-12-12-12--10-10-10-9-)---3--5---5---5-----|
D--(7-7-7--8--8--8--8-10-10-10--10-10-10-9-)---3--5-5-5-5-5-5---|
A--(5-5-5------------------------8--8--8-7-)---1--3-5-3-5-3-5---|
E-----m-m-----------------m--m----------------------3---3---3---|

->Play CHORUS, INTRO2 and there it is!
  development and support by
dmitry ivanov