rock
 
|tablatures   |lyrics   |discussion forums   |more tabs @ XGuitar.com

Offspring tabs

The Kids Aren't Alright guitar tab

                        the kids aren't alright
                          offspring americana

tabbed by j.d.sutcliff@talk21.com using bucket'o'tab v2.5

       intro                                                            
E---||-----------------------|-----------------------|------------------
B---||-----------------------|-----------------------|------------------
G---||---6-6---6-6-5-5-5-6-6-|---6-6---6-6-5-5-5-6-6-|------------------
D---||---8-8---8-8-8-8-8-8-8-|---4-4---4-4-4-4-4-4-4-|------------------
A---||-----------------------|-----------------------|------------------
E---||-----------------------|-----------------------|------------------
         pm.............         pm.............                                                      

                                                                        
E-------------------------|---------------------------||----------------
B-------------------------|---------------------------||----------------
G-----6-6---6-6-5-5-5-6-6-|---8-8-8-6-6-6-5-5-5-6-6-6-||----------------
D-----8-8---8-8-8-8-8-8-8-|---8-8-8-6-6-6-6-6-6-6-6-6-||----------------
A-------------------------|---------------------------||----------------
E-------------------------|---------------------------||----------------
      pm.............                                                                  

  second guitar             verse                                  2x   
E-----------------------||-----------------------------------------||---
B-----------------------||-----------------------------------------||---
G---------------6-------||*---------------------------------------*||---
D---8-----4-----6-----6-||*---------------3-/-6-6-6-6-6-----------*||---
A---8-----4-----4-----6-||--8-\-4-4-4-4-4-1-/-4-4-4-4-4-6-6-6-6-6--||---
E---6-----2-----------4-||--6-\-2-2-2-2-2---------------4-4-4-4-4--||---
  let ring                        pm.....     pm......    pm.....                                

    chorus                                                              
E-----------------------------------------------------------------------
B-----------------------------------------------------------------------
G-----------------------------------------------------------------------
D-----------------11-11-11-11-11-11-11-11-6-6-6-6-6-6-6-6---------------
A---8-8-8-8-8-8-8-9--9--9--9--9--9--9--9--4-4-4-4-4-4-4-4-6-6-6-6-6-6---
E---6-6-6-6-6-6-6-----------------------------------------4-4-4-4-4-4---
                                                                        

           fill riff                                                    
E-------||---------------------------------------------------||---------
B-------||---------------------------------------------------||---------
G-------||---------------------------------------------------||---------
D-------||---------------------------------------------------||---------
A---6-6-||---------------3-4---------------------------------||---------
E---4-4-||-6-6-6/8-9-2-2-----4-4-6-6-8-8-9-9-11-11-9-9-8-8-9-||---------
                                                                        

    solo                                                                
E------------------------------16-16------------------------------------
B----------------12^-14^-15/17-------17-16-17^-17-17-17-17-17-17-15-----
G------------12^--------------------------------------------------------
D-----------------------------------------------------------------------
A-----------------------------------------------------------------------
E---6-8-9-13------------------------------------------------------------
                                                                        

                                                                        
E----------------------------------------------12^-12-12-12-10-12-12^---
B---13-15-17----------13^-14-14-14-14-----------------------------------
G------------13-13-11-----------------11-12-13--------------------------
D-----------------------------------------------------------------------
A-----------------------------------------------------------------------
E-----------------------------------------------------------------------
                                                                        

   end                                                                     
E-----------------------------------||----------------------------------
B-----11-9-11-9-11-9-11-9-11-9-11-9-||----------------------------------
G-----------------------------------||----------------------------------
D-----------------------------------||----------------------------------
A-----------------------------------||----------------------------------
E-----------------------------------||----------------------------------
                                                                        

  development and support by
dmitry ivanov