rock
 
|tablatures   |lyrics   |discussion forums   |more tabs @ XGuitar.com

Offspring tabs

Tehran guitar tab

Album: The Offspring
Year: 1989
Track: 7
Title: Tehran

# intro #    (played with two guitars)  /=slide up  \=slide down
E-------------------------------12------|
B---8------------/8-8-8-8\---------12---|
G---7------------/7-7-7-7\--------------|
D---------------------------------------|
A----------7-----------------7----------|
E---------------------------------------|

# riff1 #   X10
E----------------------------------------|
B--------------10-9----------------------|
G---9-9-9-9-9-------10--9-9-9-9-9--7-9---|
D----------------------------------------|
A----------------------------------------|
E----------------------------------------|

# intro2 #   (during riff1)
E---------------------------------------------------|
B---------------------------------------8-8-8-------|
G---9-9-9---9-9-9-----------------------7-7-7-------|
D---9-9-9---9-9-9-------------7--9--10--------------|
A---7-7-7---7-7-7---7--8--10--------------------7---|
E---------------------------------------------------|

# heavy-riff #
E--------------------------------------------------------->
B--------------------------------------------------------->
G---9-9-9-10-10-10-9-9-9--10---9-9-9-10-10-10-9-9-9--12--->
D---9-9-9-10-10-10-9-9-9--10---9-9-9-10-10-10-9-9-9--12--->
A---7-7-7--8--8--8-7-7-7---8---7-7-7--8--8--8-7-7-7--10--->
E--------------------------------------------------------->
    \_____mute_________/       \______mute________/
E---------------------------------------------------------|
B---------------------------------------------------------|
G---9-9-9-10-10-10-9-9-9--14---9-9-9-10-10-10-9-9-9--16---|
D---9-9-9-10-10-10-9-9-9--14---9-9-9-10-10-10-9-9-9--16---|
A---7-7-7--8--8--8-7-7-7--12---7-7-7--8--8--8-7-7-7--14---|
E---------------------------------------------------------|
    \_______mute_______/       \_______mute_______/                    

# riff2 #   X2
E------------------------------------|
B------------------------------------|
G------------------------------------|
D---6--6-7/9-9--9--7-6--6------------|
A--------------------------8-7-8-7---|
E------------------------------------|

# verse #     X2      (...In your plane in the blue sky...)
E-----------------------------------------------------|
B-----------------------------------------------------|
G-----------------------------------------------------|
D---6-6-6-6-7-9-9-9-9-7-6-6-6-6-----------------------|
A-------------------------------8--7--8--7------------|
E-----------------------------------------------------|
    \___________palm-muted_______________/


# verse2 #         (...This is no Vietnam...)
E------------------------------------|
B------------------------------------|
G-------------------------------10---|
D---7-7-7-7-7-7-7-7-7-7-7-7-7-7-10---|
A---7-7-7-7-7-7-7-7-7-7-7-7-7-7--8---|
E---5-5-5-5-5-5-5-5-5-5-5-5-5-5------|

Play verse once.

# chorus #       *=play 8X        (might be slightly wrong)
E---------------------------------------------------------|
B--------------------------------*------------------------|
G----------------*--7-7-7-7-7-9-7---5-5-5-5-5-4-5--5--7---|
D---5-5-5-5-5-4-5---7-7-7-7-7-9-7---5-5-5-5-5-4-5--5--7---|
A---5-5-5-5-5-4-5---5-5-5-5-5-7-5---3-3-3-3-3-2-3--3--5---|
E---3-3-3-3-3-2-3-----------------------------------------|

Play riff2, verse, verse2, verse X1, chorus, heavy-riff, riff2, verse X6,
verse2 (a little bit longer), verse and chorus.

# outro #  (immediately after chorus)
E--------------------------------------------------------|
B--------------------------------------------------------|
G---9-9-10-9-9-8-9---5---7---9-9-10-9-9-8-9---5------7---|
D---9-9-10-9-9-8-9---5---7---9-9-10-9-9-8-9---5------7---|
A---7-7--8-7-7-6-7---3---5---7-7--8-7-7-6-7---3------5---|
E--------------------------------------------------------|

Play riff2 and it is done.
  development and support by
dmitry ivanov