rock
 
|tablatures   |lyrics   |discussion forums   |more tabs @ XGuitar.com

Offspring tabs

Tehran bass tab

Offspring - Tehran
Submitted By: dexterkwasserron
EMail: dexterkwasserron@charter.net
Album: Offspring
Transcribed by: Pat

it appears noone else has had the balls to tab this song out anywhere
the parts are here just plug them in

------------------------------------------------------------------------------
------------------------------------------------------------------------------
-7-7-7---7-7-7---7-5-8--------------------------------------------------------
-------0-------0--------------------------------------------------------------


------------------------------------------------------------------------------
-------------------------------------------------------------7----------------
-7-7-7-8-8-8-7-7-7-8--7-7-7-8-8-8-7-7-7-10-7-7-7-8-8-8-7-7-7---7-7-7-8-8-8-7--
------------------------------------------------------------------------------



------------------------------------------------------------------------------
-----9------------------------------------------------------------------------
-7-7--------------------------------------------------------------------------
------------------------------------------------------------------------------



------------------------------------------------------------------------------
------------------------------------------------------------------------------
-0-0-0-0-0-0-0-0-0-0-0-0-0-0-8------------------------------------------------
------------------------------------------------------------------------------



------------------------------------------------------------------------------
------------------------------------------------------------------------------
-----------------------------------5-5-5-5-5-5-5-5-5-5-5-5-5-5-5-5-3-3-3-3-3--
-3-3-3-3-3-3-3-3-3-3-3-3-3-3-3-3-3--------------------------------------------


------------------------------------------------------------------------------
------------------------------------------------------------------------------
-3-3-3-3-3-3-3-3-3-5----------------------------------------------------------
------------------------------------------------------------------------------
  development and support by
dmitry ivanov