rock
 
|tablatures   |lyrics   |discussion forums   |more tabs @ XGuitar.com

Offspring tabs

Take It Like A Man guitar tab

Album: Ignition
Year: 1992
Track: 4
Title: Take it like a man

# intro #     X8                          # main-riff #   X4 (during intro)
E------------------------------|          E----------------------|
B------------------------------|          B----------------------|
G---14-14-14-14-14--12----12---|          G---7-7-7-7-7--5---5---|
D---12-12-12-12-12--10-12-10---|          D---7-7-7-7-7--5-5-5---|
A----------------------10------|          A---5-5-5-5-5--3-5-3---|
E------------------------------|          E----------------3-----|

# verse #   X2    *=play 12-14X    m=palm-muted
E----------------------------------------------------------------------------|
B----*-------*---------------------------------------------------------------|
G---7-----7-7---12-12-12-12---8-8-8-8---7-7-7-7-7--5---5---7-7-7-7-7--5---5--|
D---7---7---7---12-12-12-12---8-8-8-8---7-7-7-7-7--5-5-5---7-7-7-7-7--5-5-5--|
A---5-------5---10-10-10-10---6-6-6-6---5-5-5-5-5--3-5-3---5-5-5-5-5--3-5-3--|
E---m-------m----------------------------------------3------------------3----|
                                        ( during this you can play intro  )
# chorus #
E---------------------------------------------------------->
B---------------------------------------------------------->
G---5-5-7-8-7-5-7-7-7-7--14-12-11---5-5-7-8-7-5-7---7/14--->
D---5-5-7-8-7-5-7-7-7-7--14-12-11---5-5-7-8-7-5-7---5/12--->
A---3-3-5-6-5-3-5-5-5-5--12-10--9---3-3-5-6-5-3-5---------->
E---------------------------------------------------------->

E-------------------------------------------|
B-------------------------------------------|
G---5-5-7-8-7-5-7-7-7-7--14-12-11---15-14---|
D---5-5-7-8-7-5-7-7-7-7--14-12-11---15-14---|
A---3-3-5-6-5-3-5-5-5-5--12-10--9---13-12---|
E-------------------------------------------|

Play main-riff (palm-muted), verse and chorus.
m=palm-muted
*= play 30X
# bridge #    # bridge2 #                *=play 12X
E-------|     E------------------------------------------------------------>
B----*--|     B------------------------------*----------------------------->
G---7---|     G---7---7-8-7---7-8-7-----7---5---7-6----------7-6----------->
D---7---|     D---7---7-8-7---7-8-7-----7---5---7-6-8-7-5-7--7-6-8-7-5-7--->
A---5---|     A---5---5-6-5---5-6-5-----5---3---5-4-8-7-5-7--5-4-8-7-5-7--->
E---m---|     E-------------------------------------6-5-3-5------6-5-3-5--->

E----------------------------|
B----*-----------------------|
G---5---7-6----------5-8-7---|
D---5---7-6-8-7-5-7--5-8-7---|  Play chorus, main-riff or intro and verse X1.
A---3---5-4-8-7-5-7--3-6-5---|
E-----------6-5-3-5----------|

# outro #      (Because heaven knows...)
E----------------------------------------------------------|
B----------------------------------------------------------|
G---12-12-12-12---8-8-8-8---7-7-7-7-7--5---5---7-7-7-7-7---|
D---12-12-12-12---8-8-8-8---7-7-7-7-7--5-5-5---7-7-7-7-7---|
A---10-10-10-10---6-6-6-6---5-5-5-5-5--3-5-3---5-5-5-5-5---|
E----------------------------------------3-----------------|
  development and support by
dmitry ivanov