rock
 
|tablatures   |lyrics   |discussion forums   |more tabs @ XGuitar.com

Offspring tabs

Take It Like A Man bass tab

# main # X4        # verse # X2
G--------------|   G--|---3X---|--------|-----------------|---2X---|--|
D--------------|   D--|--------|--------|555--------------|--------|--|
A---555553-3---|   A--|555553-3|55555555|--------666------|555553-3|--|
E---------3----|   E--|------3-|--------|-----------------|------3-|--|
:
# chorus #                        # bridge # X4
G--|-------3X------|--------|     G--------------|
D--|---------------|8--87---|     D--------------|
A--|335653555535555|--------|     A---55555555---|
E--|---------------|--------|     E--------------|
:
Then play verseX2, chorus and mainX4.
:
# bridge2 #   *=play 16X   %=pause                           >
G------------------------------------------------------------>
D------------------------------------*----------------------->
A---5-%%%%565-%%%%565-%%%%%%5-------3-----------54----54----->
E-------------------------------------------------6535--6535->
>bridge2
>---------------------------|
>----*----------------------|   > Then play chorus and mainX4.
>---3-----------54----365---|
>-----------------6535------|
:
# outro-verse #
G--|---3X---|--------|-----------------|---2X---|----------------------------|
D--|--------|--------|555--------------|--------|555-------------------------|
A--|555553-3|55555555|--------666------|555553-3|--------666-----555553-3555-|
E--|------3-|--------|-----------------|------3-|----------------------3-----|
  development and support by
dmitry ivanov