rock
 
|tablatures   |lyrics   |discussion forums   |more tabs @ XGuitar.com

Offspring tabs

Staring At The Sun guitar tab

staring at the sun
offspring - americana

tabbed by j.d.sutcliff@talk21.com using bucket'o'tab v2.5

    intro                                                               
E---||---------------------------------||-------------------------------
B---||---------------------------------||-------------------------------
G---||---------------------------------||-------------------------------
D---||-7-7-7-5-7-7-7-5-7-7-7-5-7-7-7-5-||-------------------------------
A---||-5-5-5-3-5-5-5-3-5-5-5-3-5-5-5-3-||-------------------------------
E---||---------------------------------||-------------------------------
       pm..............................                                                         

    verse                                                               
E---------------------------------------|-------------------------------
B---------------------------------------|-------------------------------
G---------------------------------------|-------------------------------
D---7-7-7-7-10-10-10-10---------5-5-5-5-|-------------------------------
A---5-5-5-5-8--8--8--8--5-5-5-5-3-3-3-3-|-------------------------------
E-----------------------3-3-3-3---------|-------------------------------
  pm....................................                             

                                                                        
E-------------------------------------------||--------------------------
B-------------------------------------------||--------------------------
G-------------------------------------------||--------------------------
D---10-10-10-10-10-10-10-10-3-3-3-3-5-5-5-5-||--------------------------
A---8--8--8--8--8--8--8--8--1-1-1-1-3-3-3-3-||--------------------------
E-------------------------------------------||--------------------------
   pm.......................................                                                                     

    chorus and verse 2                                                  
E--------------------------------------|--------------------------------
B--------------------------------------|--------------------------------
G--------------------------------------|--------------------------------
D---7-7---7-10-10---10---------5-5-5-5-|--------------------------------
A---5-5---5-8--8----8--5-5---5-3-3-3-3-|--------------------------------
E----------------------3-3---3---------|--------------------------------
   pm..     pm..      pm..                                                         

                                                                        
E------------------------------------||---------------------------------
B------------------------------------||---------------------------------
G------------------------------------||---------------------------------
D---7-7-7-10-10-10-12-12-12-14-14-14-||---------------------------------
A---5-5-5-8--8--8--10-10-10-12-12-12-||---------------------------------
E------------------------------------||---------------------------------
                                                                        

    verse 3                        verse 4, chorus 2                    
E-------------------------------||-------------------------||-----------
B-------------------------------||-------------------------||-----------
G-------------------------------||-------------------------||-----------
D---7-7-\-5-/-7-----------5-5-5-||-7-7-7-------------5-5-5-||-----------
A---5-5-\-3-/-5-3-3-5-5-5-3-3-3-||-5-5-5-3-3-3-5-5-5-3-3-3-||-----------
E---------------1-1-3-3-3-------||-------1-1-1-3-3-3-------||-----------
                                                                        

    fill                                                                
E-------------------------------------------------||--------------------
B-------------------------------------------------||--------------------
G-------------------------------------------------||--------------------
D---5-7---5-5-6-7---5-5-6-10-10-10-10-3-3-3-5-5-5-||--------------------
A---3-5---3-3-4-5---3-3-4-8--8--8--8--1-1-1-3-3-3-||--------------------
E-------------------------------------------------||--------------------
                                                                        

  development and support by
dmitry ivanov