rock
 
|tablatures   |lyrics   |discussion forums   |more tabs @ XGuitar.com

Offspring tabs

Staring At The Sun bass tab

"Staring at the sun" by The Offspring
Song: Staring at the Sun
Artist: The Offspring
Album: Americana

Intro/Outro		   X3
G----------------------------|------------------
D--------3-3-3---------------|-----3-3-5-5-7-7--
A--5-5-5-------------3-3-3-4-|-5-5--------------
E--------------3-3-3---------|------------------
Fill (Between the 1st verse and 1st chorus)
G----
D----
A----
E-5--
(Let ring...)

Chorus			    X3
G-----------------------------|------------------
D-----------------------------|-----3-3-5-5------
A--5-5-5-------------3-3-3-4--|-5-5---------3-3--
E--------1-1-1-3-3-3----------|------------------

			    X3
G-----------------------------|------------------
D-----------------------------|-----3-3-5-5-7-7--
A--5-5-5-------------3-3-3-4--|-5-5--------------
E--------1-1-1-3-3-3----------|------------------

Verse
G--------------------
D-----3-3------------
A-5-5---------3-3-4--
E---------3-3--------

Bridge (You only play the last part of the bridge)
G---------------------------
D--3-3-3-3------------------
A----------1-1-1-1-3-3-3-3--
E---------------------------

2nd Chorus		    X3
G-----------------------------|------------------
D-----------------------------|-----3-3-5-5-7-7--
A--5-5-5-------------3-3-3-4--|-5-5--------------
E--------1-1-1-3-3-3----------|------------------

Intro X2
Fill X1
Chorus X1
Verse X2
Chorus X1
Verse X2
Bridge X1
2nd Chorus X1
Outro X1

This tab was created by Christian Mangs.
Email me at Shadow145@hotmail.com
  development and support by
dmitry ivanov