rock
 
|tablatures   |lyrics   |discussion forums   |more tabs @ XGuitar.com

Offspring tabs

Special Delivery guitar tab

Website: The Offspring.com (http://www.theoffspring.com)
Tabbed By: per (per@coolast.com)
Tabbed For: Guitar
Song Title: Special Delivery
Album: Conspiracy Of One
Tab:
----------------------------------------------------------
Song Structure:
Bass intro 9x
riff1      2x
solo       5x
riff1      3x
riff2      1x
bass intro 9x ("huga chaka")
riff3      1x
riff1      3x
riff2      1x
end on last chord of riff2, and let ring..


Bass intro:
G|----------------------------------------
D|----------------------------------------
A|-----------------------3-2-0-1----------
E|-7/1-1-1-0-1-1-0-1-1-0---------3--------

riff1
				     * *
e|----------------------------------------
B|----------------------------------------
G|-------------------------------------5--
D|-5-5-5-3-5-5-5-3--11-14-12-13--11--3-5--
A|-5-5-5-3-5-5-5-3--11-14-12-13--11--3-3--
E|-3-3-3-1-3-3-3-1---9-12-10-11---9--1----

some strange RATM kinda solo.. 
atleast the effect..

Solo:
e|----------------------------------------
B|----------------------------------------
G|----------------------------------------
D|-7-7-5-7-7-7-5-7-5-7-3-5----------------
A|----------------------------------------
E|----------------------------------------

riff2:
e|----------------------------------------
B|----------------------------------------
G|-3-5------------------------------------
D|-3-5------------------------------------
A|-1-3--3h-5--3h-5--3h5-------------------
E|----------------------------------------

riff3:(x= strum palm muted alot of times)
   x 
e|----------------------------------------
B|----------------------------------------
G|-3-3/4-4-3/4-4-3/4-4-5:-----------------
D|-3-3/4-4-3/4-4-3/4-4-5:-----------------
A|-1-1/2-2-1/2-2-1/2-2-3:-----------------
E|----------------------------------------
----------------------------------------------------------
  development and support by
dmitry ivanov