rock
 
|tablatures   |lyrics   |discussion forums   |more tabs @ XGuitar.com

Offspring tabs

Spare Me The Details guitar tab

The Offspring
"Spare me the Details"
Splinter

Acoustic or Electric

Chrous:

E------------------------------------
B------------------------------------
G-------------------9-9-9-9--7-7-7-7-
D-7-7-7-7--7-7-7-7--9-9-9-9--7-7-7-7-
A-7-7-7-7--7-7-7-7--7-7-7-7--5-5-5-5-
E-5-5-5-5--5-5-5-5-------------------

Verse:

E------------------------------------
B------------------------------------
G-------------------9-9-9-9--7-7-7-7-
D-------------------7-7-7-7--5-5-5-5-
A-7-7-7-7--7-7-7-7-------------------
E-5-5-5-5--5-5-5-5-------------------
 (~~~~~~~~~~~~~Palm Mute~~~~~~~~~~~~)

this is just the chorus/verse. I still have to figure out the rest.
  development and support by
dmitry ivanov