rock
 
|tablatures   |lyrics   |discussion forums   |more tabs @ XGuitar.com

Offspring tabs

Spare Me The Details bass tab

Artist: The Offspring
Song: Spare Me The Details
Album: Splinter
Bassist: Greg K.
Tuning: Standard & Half A Step Down

*This song is actually half a step down but i tabbed it out both ways)

Intro
G|-----------------|
D|-----------------|
A|---------666-444-|
E|-444-444---------|

Gb|-----------------|
Db|-----------------|
Ab|---------777-555-|
Eb|-555-555---------|

Verse 2x
G|-----------------------------------------------|
D|-----------------------------------------------|
A|-------------666---444---------------4444-6666-|
E|-44-1/33-444-----6-----6-3/444-3/444-----------|

Gb|-----------------------------------------------|
Db|-----------------------------------------------|
Ab|-------------777---555---------------5555------|
Eb|-55-2/44-555-----7-----7-4/555-4/555------0000-|

Prechorus "And I don't really wanna know"
G|-----------------|
D|-----------------|
A|---------666-444-|
E|-444-444---------|

Gb|-----------------|
Db|-----------------|
Ab|---------777-555-|
Eb|-555-555---------|

Chorus                   last time
G|-----------------|--------------------|
D|-----------------|--------------------|
A|---------666-444-|---------888---6666-|
E|-444-444---------|-444-444-----8------|

Gb|-----------------|--------------------|
Db|-----------------|--------------------|
Ab|---------777-555-|---------999---7777-|
Eb|-555-555---------|-555-555-----9------|

-intro
-verse
-prechorus
-chorus

Bridge
G|-------------|-------------------------------------|
D|-------------|-------------------------------------|
A|-------------|-88888888----------66666666----------|
E|-4~-44444444-|----------66666666----------88888888-|

Gb|-------------|-------------------------------------|
Db|----77777777-|-------------------------------------|
Ab|-------------|-99999999----------77777777----------|
Eb|-5~----------|----------77777777----------99999999-|

G|-------------------------------------------------------------|
D|-----------------------------------------------6-5---5-------|
A|-88888888----------6666666666666666-44444444-------6---6-4-3-|
E|----------66666666---------------------------4---------------|

Gb|-------------------------------------------------------------|
Db|-----------------------------------------------7-6---6-------|
Ab|-99999999----------7777777777777777-55555555-------7---7-5-4-|
Eb|----------77777777---------------------------5---------------|

-intro

Verse 2x
G|------------------------------------|
D|------------------------------------|
A|----------666-3-44----------444-666-|
E|-2/44-444----------2/44-444---------|

Gb|------------------------------------|
Db|------------------------------------|
Ab|----------777-4-55----------555-----|
Eb|-3/55-555----------3/55-555-----000-|

-Prechorus
-chorus

End on E|-4~-|
      Eb|-5~-|
  development and support by
dmitry ivanov