rock
 
|tablatures   |lyrics   |discussion forums   |more tabs @ XGuitar.com

Offspring tabs

Something To Believe In guitar tab


Date: Sun, July 20 1997
From: Peter Ferragine (iginition@yesic.com)
Group: Offspring
Album: SMASH
Released: 1994 epitaph
Track: 6
Title: something to believe in


intro

|-------------------------------------------|
|-------------------------------------------|
|-10---------------5-8-8-8-8----10-10-10-10-|
|-10-3--5-6-6-6-6--5-8-8-8-8--8-10-10-10-10-|
|-8--3--5-6-6-6-6--3-6-6-6-6--8-8--8--8--8--|
|----1--3-4-4-4-4-------------6-------------|

verse (played with two rhythms)

|---------------------------------|
|---------------------------------|
|------8-8-8-8--3-3-----------(5)-|brackets played at 
|-6-6--8-8-8-8--3-3--3-3-3-3--(5)-|end of each verse
|-6-6--6-6-6-6--1-1--3-3-3-3--(3)-|
|-4-4----------------1-1-1-1------|

chorus

|---------------------------------------|
|---------------------------------------|
|-10-10-10-10-8-10-10-----8-8-8-8-12-13-|
|-10-10-10-10-8-10-10-6-6-8-8-8-8-12-13-|
|--8--8--8--8-6--8--8-6-6-6-6-6-6-10-11-|
|---------------------4-4---------------|

(where they lead...)

|-----------|
|-----------|
|-----------|
|-3---3-----|
|-3---3-trem|
|-1---1-----|

outro

|----------------------------|
|----------------------------|
|------8-8-8-8--3-3----------|
|-6-6--8-8-8-8--3-3--3-3-3-3-|
|-6-6--6-6-6-6--1-1--3-3-3-3-|
|-4-4----------------1-1-1-1-|

lyrics

i believe that reality's gone disillusion's real
i believe that morality's gone and there's nothin' to feel
if you take the sacred things the things that we hold dear
empty promise is all you'll find so give me something
something to believe in 
i believe in a changing of the guard put our feet on the ground
see it happen in your own backyard everything breaks down
do you accept what you are told without even thinking 
throw it all and make your own and give me something
something to believe in
where they lead you will follow well i guess that's just the way it goes
and if you look away you'll be doing what they say and if you look alive
you'll be singled out and tried if you take home anything
let it be your will to think the more cynical you become
the better off you'll be
  development and support by
dmitry ivanov