rock
 
|tablatures   |lyrics   |discussion forums   |more tabs @ XGuitar.com

Offspring tabs

Something To Believe In bass tab

Offspring - Something to Believe In
Submitted By: Anavrin
EMail: joe_the_man3@hotmail.com
Album: Smash
As tabbed by Joe Muggah


Riff
G|---------------------------------------------------------|
D|---------------------------------------------------------|
A|--8---------------------3--6-6-6-6-6-6-----8-8-8-8-8-8-8-|
E|-----1--3--4-4-4-4-4-4------------------6----------------|


Verse
G|-----------------------------------|
D|-----------------------------------|
A|-----6-6-6-6-6-6--1--1-1-1---------|
E|--4-------------------------1--1---|


Pre-Chorus
G|---------------------------------------------------------|
D|---------------------------------------------------------|
A|-------6-6--6--1-1--------------6-6--6--1-1--------------|
E|--4-4---------------1-1----4-4---------------1-1---------|

(continued)
G|---------------------------------------------------------|
D|---------------------------------------------------------|
A|-------6-6--6--1-1--------------6-6--6--1-3-3-3-3-3-3-3--|
E|--4-4---------------1-1----4-4---------------------------|


Chorus
G|---------------------------------------------------------|
D|---------------------5--6---------------------5--6-------|
A|--8-8--6--8-----6-6--------8-8--6--8-----6-6-------------|
E|-------------4------------------------4------------------|

(continued)
G|---------------------------------------------------------|
D|---------------------5--6--------------------------------|
A|--8-8--6--8-----6-6--------8-8--6--8-----6-6-6-6-6-------|
E|-------------4------------------------4-------------6----|


Bridge
G|---------------------------------------------------------|
D|---------------------------------------------------------|
A|-----------------------------------3--6-6-6-6-6-6-6------|
E|--1-1-1-1-1-1-1--3--4-4-4-4-4-4-4--------------------6---|

(continued)
G|-------------------------------|
D|-------------------------------|
A|--8-8-8-8-8-8-8-8--------------|
E|-------------------------------|


Outro
G|---------------------------------------------------------|
D|---------------------------------------------------------|
A|-------6-6----1-1--------------6-6----1-1----1-1-1-------|
E|--4-4--------------1-1----4-4--------------1--------1----|


Riff
Verse
Pre-Chorus
Chorus
Riff
Verse
Pre-Chorus
Chorus
Bridge
Riff
Chorus
Outro
  development and support by
dmitry ivanov