rock
 
|tablatures   |lyrics   |discussion forums   |more tabs @ XGuitar.com

Offspring tabs

Smash guitar tab


Date: Sat, August 2 1997
From: Peter Ferragine (iginition@yesic.com)
Group: Offspring
Album: SMASH
Released: 1994 epitaph records
Track: 14
Title: smash

/ - slide


main riff

|----------------------------------------|
|----------------------------------------|
|-10-10-10-------------------------------|  played 2 ways, second using
|-10-10-10-10-/-11-11--6-/-8-8-8-8-10-10-|  palm-muting
|-8--8--8--10-/-11-11--6-/-8-8-8-8-10-10-|
|----------8--/-9--9---4-/-6-6-6-6-8--8--|

chorus

|------------------------------------------|
|------------------------------------------|
|-----------8-8-8-8-8-6-6-6-6-6--6-6-6-/-8-|
|-6-6-6-6-6-8-8-8-8-8-6-6-6-6-6--6-6-6-/-8-|
|-6-6-6-6-6-6-6-6-6-6-4-4-4-4-4--4-4-4-/-6-|
|-4-4-4-4-4--------------------------------|

|------------------------------------------|
|------------------------------------------|
|-----------8-8-8-8-8-6-6-6-6-6--6-6-6-/-5-|
|-6-6-6-6-6-8-8-8-8-8-6-6-6-6-6--6-6-6-/-5-|
|-6-6-6-6-6-6-6-6-6-6-4-4-4-4-4--4-4-4-/-3-|
|-4-4-4-4-4--------------------------------|

riff played after chorus

|-------------|
|-------------|
|-------------|
|-------------|
|---3-4-3-----|
|-1-------4-3-|

bridge

|--------------------------------------|
|--------------------------------------|
|-10--10----8--8----6--6----8--8--9--9-|
|-10--10----8--8----6--6----8--8--9--9-|
|-8---8-----6--6----4--4----6--6--7--7-|
|--------------------------------------|

played over bridge

|-------------------|
|-------------------|
|-------------------|
|-------------------|
|-----3-3-4-4-3-----|
|-1-1-----------4-3-|

bridge outro

|------------------------------------------|
|------------------------------------------|
|-10--10----8--8----6--6----8--8--5-----8--|
|-10--10----8--8----6--6----8--8--5--8--8--|
|-8---8-----6--6----4--4----6--6--3--8--6--|
|------------------------------------6-----|

lyrics

head over heels i've fit in before
now i don't want to do it no more
i've held it all in with blood on my face
built it up man so bad you could taste
i don't slag no one
i don't even judge
don't give a shit 'cause i'm not gonna budge
i just want to be who i want to be 
guess that's hard for others to see
i'm not a trendy asshole
i do what i want 
i do what i feel like
i'm not a trendy asshole
i don't give a fuck if it's good enough for you
'cause i'm alive
smash is the way you feel all alone
like an outcast you're out on your own
smash is the way you deal with your life
like an outcast you're smashing to strife
head over heels i've fit in before
now i don't want to do it no more
i just want to be who i want to be
guess that's hard for others to see
  development and support by
dmitry ivanov