rock
 
|tablatures   |lyrics   |discussion forums   |more tabs @ XGuitar.com

Offspring tabs

She's Got Issues guitar tab

                            she's got issues
                          offspring - americana

tabbed by j.d.sutcliff@talk21.com using bucket'o'tab v2.5


       intro                      verse                                 
E---||-------------------------||---------------------------------||----
B---||-------------------------||---------------------------------||----
G---||-------------------------||---------------------------------||----
D---||-9-9-9-9-9-9-9-9-9-9-9-9-||-9-9---9-4-4---4-6-7-7---7-9-----||----
A---||-9-9-9-9-9-9-9-9-9-9-9-9-||-7-7---7-2-2---2-4-5-5---5-7-7-7-||----
E---||-7-7-7-7-7-7-7-7-7-7-7-7-||-----------------------------5-5-||----
        grad relase pm......                                                                

    riff                                                                
E-----------------|--------------|--------------|----------------||-----
B-----------------|--------------|--------------|------------9---||-----
G-----9-11/13\9---|---8-9/11\8---|---7-9/11\7---|---7-9/11\7---9-||-----
D---9-------------|-9------------|-7------------|-7--------------||-----
A-----------------|--------------|--------------|----------------||-----
E-----------------|--------------|--------------|----------------||-----
                                                                        

    chorus                                                              
E-----------------------------------------------------------------------
B-----------------------------------------------------------------------
G-----------------------------------------------------------------------
D---9-9-9-7-9-9-9-7-----------------7-7-7-7-7-7-7-7---------------------
A---7-7-7-5-7-7-7-5-9-9-9-7-9-9-9-7-5-5-5-5-5-5-5-5-7-7-7-7-7-7-7-7-----
E-------------------7-7-7-5-7-7-7-5-----------------5-5-5-5-5-5-5-5-----

                                                                        

    fill                                                                
E-----------------------------------------------------------------------
B-----------------------------------------------------------------------
G-----------------------------------------------------------------------
D---5-5-5-5-5-5-5-5---------------------------------9-9-9-9-9-9-9-9-5---
A---3-3-3-3-3-3-3-3-5-5-5-5-5-5-5-5-7-7-7-7-7-7-7-7-7-7-7-7-7-7-7-7-3---
E-------------------3-3-3-3-3-3-3-3-5-5-5-5-5-5-5-5---------------------
                                                                        

                                                     end                
E---------------------------------------------------------------||-----
B---------------------------------------------------------------||-----
G---------------------------------------------------------------||-7---
D---5-5-5-5-5-5-5-----------------------------------------------||-7---
A---3-3-3-3-3-3-3-5-5-5-5-5-5-5-5-9-9-9-9-9-9-9-9-9-9-9-9-9-----||-5---
E-----------------3-3-3-3-3-3-3-3-7-7-7-7-7-7-7-7-7-7-7-7-7-----||-----
                                    grad relase pm......                                     

  development and support by
dmitry ivanov