rock
 
|tablatures   |lyrics   |discussion forums   |more tabs @ XGuitar.com

Offspring tabs

She's Got Issues bass tab

OFFSPRING - SHE'S GOT ISSUES

Tab by Felix Pflaum

Intro
G-------------------------------------|
D-------------------------------------|
A---2---2-2-2-2-2-2-2-2-2-2-2-2-2-2---|
E-------------------------------------|

Line (X5.75)                                       | ends last time
G---------------------------------------------------------------------|
D---2-2---------------------------------------------------------------|
A-------------------2-2---------2-4-5-5-------4-5-7-0-0---------------|
E-------------0-0-0-----------0-------------------------------4-5-0---|

Chorus X2
G------------------------------------------------------------------------|
D------------------------------------------------------7---7---7---7-----|
A---7-7-7-5-7-7-7-0--2-2-2-0-2-2-2-4--5-0-5-0-5-0-5-0----7---7---7---7---|
E------------------------------------------------------------------------|

Then play lineX1.75 and chorusX2.

  bridge                        bridge-part2       *=play 16X
G-------------------------|   G-------------------|
D-------------------------|   D----------------*--|
A---3-----------------7---|   A---3-----------2---|
E---------3-----5---------|   E---------3---------|

Then play lineX5.75, chorusX4, bridgeX3 and bridge-part2 (end with first note of line).
  development and support by
dmitry ivanov