rock
 
|tablatures   |lyrics   |discussion forums   |more tabs @ XGuitar.com

Offspring tabs

Session guitar tab

Album: Ignition
Year: 1992
Track: 1
Title: Session

# intro #    X 2
E--------------------------------------------|
B--------------------------------------------|
G---7-7-7-7--10-10-10-10--5-5-5-5------------|
D---7-7-7-7--10-10-10-10--5-5-5-5--5-5-5-5---|
A---5-5-5-5---8--8--8--8--3-3-3-3--5-5-5-5---|
E----------------------------------3-3-3-3---|

# verse #  X 2   
E-------------------------------------------|      
B-------------------------------------------|      
G---7-7----7-10-10---10-5-5----5------------|      
D---7-7----7-10-10---10-5-5----5-5-5----5---|      
A---5-5----5--8--8----8-3-3----3-5-5----5---|      
E--------------------------------3-3----3---|      

# pre-chorus #    X 2    
E----------------------------------------------------------------------------|
B----------------------------------------------------------------------------|
G---7-7-7-7-7-7-7-7-10-10-10-10-10-10-10-10-5-5-5-5-5-5-5-5------------------|
D---7-7-7-7-7-7-7-7-10-10-10-10-10-10-10-10-5-5-5-5-5-5-5-5-5-5-5-5-5-5-5-5--|
A---5-5-5-5-5-5-5-5--8--8--8--8--8--8--8--8-3-3-3-3-3-3-3-3-5-5-5-5-5-5-5-5--|
E-----------------------------------------------------------3-3-3-3-3-3-3-3--|
      \___mute____/    \______mute_________/  \__mute_____/   \____mute___/

# chorus #         
E------------------------------------------------------------------------->
B------------------------------------------------------------------------->
G---7-7-7-7--9--10---7-7-7-7--9--10---7-7-7-7--9--10---5-5-5-5------------>
D---7-7-7-7--9--10---7-7-7-7--9--10---7-7-7-7--9--10---5-5-5-5--5-5-5-5--->
A---5-5-5-5--7---8---5-5-5-5--7---8---5-5-5-5--7---8---3-3-3-3--5-5-5-5--->
E---------------------------------------------------------------3-3-3-3--->
                   *=play 8X
E--------------------------------------------------------------|
B-------------------------------------------------------*------|
G---7-7-7-7--9--10---7-7-7-7--9--10---7-7-7-7--9--10---5----*--|
D---7-7-7-7--9--10---7-7-7-7--9--10---7-7-7-7--9--10---5---5---|
A---5-5-5-5--7---8---5-5-5-5--7---8---5-5-5-5--7---8---3---5---|
E----------------------------------------------------------3---|

# end-chorus #    (play very fast)
E---------------------------------|
B---------------------------------|
G---7--5-6-7--5-6-7--5-6-7--5-6---|
D---7--5-6-7--5-6-7--5-6-7--5-6---|
A---5--3-4-5--3-4-5--3-4-5--3-4---|
E---------------------------------|

->Play VERSE, PRE-CHORUS, CHORUS and END-CHORUS.

# bridge #  X 3  (some scrap off first)             # bridge-end #
E-----------------------------------------|         E-----------|
B-----------------------------------------|         B-----------|
G---7-7-7-7-7--5-5--10-10-10-10-10--5-5---|         G---3---5---|
D---7-7-7-7-7--5-5--10-10-10-10-10--5-5---|         D---3---5---|
A---5-5-5-5-5--3-3---8--8--8--8--8--3-3---|         A---1---3---|
E-----------------------------------------|         E-----------|

->Play PRE-CHORUS, CHORUS and END-CHORUS. 
  development and support by
dmitry ivanov