rock
 
|tablatures   |lyrics   |discussion forums   |more tabs @ XGuitar.com

Offspring tabs

Self Esteem bass tab

Return to Music X

Music X Bass Tab








	
	untitled




-------------------------------------------------------------------------------

                        SELF ESTEEM - Offspring

-------------------------------------------------------------------------------



 Tabbed and submitted by Dave Lake (SidVicious_98@yahoo.com)



Intro/Chorus

G-------------------------

D----3-3---------3-3------

A-0-0---3-3---0-0---3-3---

E----------3-3---------3-3



Pre-Verse

G--------------------

D--------------------

A--------------------

E-0-0-1-1-1-1-1-1-1-1



Verse

G------------------------------------------

D-7-7-7-7--7--------10-10-10-10--10-5-5-5-5

A-----------8-8-8-8------------------------

E------------------------------------------



Chorus

Verse

Chorus



Bridge

 "When she says..."

G-----------------------------

D-0-0-------------0-0---------

A----1-1---3-3-3-3---1-1---3-3

E-------1-1-------------1-1---



Verse

Chorus

Bridge

Verse

Chorus
  development and support by
dmitry ivanov