rock
 
|tablatures   |lyrics   |discussion forums   |more tabs @ XGuitar.com

Offspring tabs

Race Against Myself guitar tab

#----------------------------------PLEASE NOTE---------------------------------#
#This file is the author's own work and represents their interpretation of the #
#song. You may only use this file for private study, scholarship, or research. #
#------------------------------------------------------------------------------#

The Offspring-Race Against My Self
Album : Splinter 2003
Track : 5
Tabbed by getch 2003-2004 :-)


Soon gonna tab out the second guitar part,
just play the same notes one octave down or something.

Gtr I (E A D G B E) - Standard Tuning

 4/4
  Gtr I
  E E E E E E E E E E E E E E E E
|------------------------------------|
|------------------------------------|
|---------7-7-7-7--------------------|
|-4-4-4-4-7-7-7-7-7-7-7-7-2-2-2-2----| intro,chorus
|-4-4-4-4-5-5-5-5-7-7-7-7-2-2-2-2----|
|-2-2-2-2---------5-5-5-5-0-0-0-0----|


  E E E E E E E E E E E E E E E E
|------------------------------------|
|------------------------------------|
|------------------------------------|
|-4-4-4-4-4-4-4-4-2-2-2-2-2-2-2-2----| verse palm muted, open it as well
|-4-4-4-4-4-4-4-4-2-2-2-2-2-2-2-2----|
|-2-2-2-2-2-2-2-2-0-0-0-0-0-0-0-0----|

  E E E E E E E E E E E E E E E E
|------------------------------------|
|------------------------------------|
|------------------------------------|
|-----4-----4-----4---4-4-5-4-2-4----| bridge special part
|-----------------------2-3-2-0-2----|
|-2-2---2-2---2-2---2----------------|

  E E E E E E E E E E E E E E E E
|------------------------------------|
|------------------------------------|
|------------------------------------|
|-----4-----4-----4---4-4-5----------| bridge special part 2
|-----------------------2-3----------|
|-2-2---2-2---2-2---2----------------|
  development and support by
dmitry ivanov