rock
 
|tablatures   |lyrics   |discussion forums   |more tabs @ XGuitar.com

Offspring tabs

Race Against Myself bass tab

Artist: The Offspring
Song: Race Against Myself
Album: Splinter
Bassist: Greg K.
Tuning: Standard

Intro 4x                        4th time
G|---------------------|----------------------|
D|---------------------|----------------------|
A|------5-55------7-77-|-9-99\\-5-55-----------|
E|-2-22------5-55------|------------5-55-0-00-|

G|----------------------------------------|
D|----------------------------------------|
A|----------------------------------------|2x
E|-1/2-22-2-22-22-2222-2\\0-000-00-00-0000-|

Verse
G|-----------------------------------|
D|-----------------------------------|
A|-----------------------------------|
E|-2222222222222222-0000000000000000-|

Chorus  4x                       4th time
G|---------------------|----------------------|
D|---------------------|----------------------|
A|------5-55-----------|-9-99\\-5-55-----------|
E|-2-22------5-55-0-00-|------------5-55-0-00-|

Preverse
G|----------------------------------------|
D|----------------------------------------|
A|----------------------------------------|2x
E|-1/2-22-2-22-22-2222-2\\0-000-00-00-0000-|

-Verse
-chorus

Bridge
G|--------------------------------------------|
D|--------------------------------------------|
A|----------------3-2-0-2-----------------0-2-|
E|-0h222-22222222----------0h222-22222222-----|

-Chorus
-preverse

Ending
G|------------------|
D|------------------|
A|------------------|
E|-00-00-00-0000-2~-|
  development and support by
dmitry ivanov