rock
 
|tablatures   |lyrics   |discussion forums   |more tabs @ XGuitar.com

Offspring tabs

Pretty Fly For A White Guy bass tab

song:   Pretty Fly For A White Guy
artist: The Offspring
bassist:Greg K
tabber: Brycey
date:   9th August 2003

intro/verse
G |------------------------
D |------------------2-0---
A |-----2-2---0-2-2--------
E |---------2--------------  X8


chorus
G |------------------------------------------------
D |-------3-4-3-4----3-4-3-4-----------------------
A |-----2----------2------------5-5-0-5--7777-5-0--
E |------------------------------------------------  X3

post-chorus
G |------------------------------------------------
D |-----5--5---5---7--7---7---4-3-2---1-2-3--------
A |----------5----------7-----------2-------2------
E |------------------------------------------------  X1

intro/verse X8
chorus X3
post-chorus X1

bridge
G |-------------------4----------------------------
D |-----------------------2-0----------------------
A |-----2--02--02--02---0--------------------------
E |------------------------------------------------  X2

intro/verse X4
chorus X3

play this part X3                  play this part X1
G |-----------------------------|------------------
D |-----5--5---5---7--7---7-----|--4-3-2---1-2-3---
A |----------5----------7-------|--------2-------2-
E |-----------------------------|------------------

this was my first tab - PLEASE rate it - thank you - enjoy playing the song!

-brycey
  development and support by
dmitry ivanov