rock
 
|tablatures   |lyrics   |discussion forums   |more tabs @ XGuitar.com

Offspring tabs

Pay The Man guitar tab

                              pay the man
                          offspring americana

tabbed by j.d.sutcliff@talk21.com using bucket'o'tab v2.5

    intro - [flanger]                                                   
E---7-8--12-11-5-5-/-7---7-|-7-8--12-11-5-12-/-14---14-|----------------
B---9-10-14-13-7-7-/-9---7-|-9-10-14-13-7-14-/-16---16-|----------------
G---9-10-14-13-7-7-/-9---8-|-9-10-14-13-7-14-/-16---16-|----------------
D---9-10-14-13-7-7-/-9---9-|-9-10-14-13-7-14-/-16---16-|----------------
A---7-8--12-11-5-5-/-7---9-|-7-8--12-11-5-12-/-14---14-|----------------
E------------------------7-|---------------------------|----------------
                                                                        

                              fill 1                                    
E---7-8--12-11-5-5-/-7---7-||-5-5-5-5-7---------------------------------
B---9-10-14-13-7-7-/-9---7-||-5-5-5-5-7---------------------------------
G---9-10-14-13-7-7-/-9---8-||-6-6-6-6-8---------------------------------
D---9-10-14-13-7-7-/-9---9-||-7-7-7-7-9---------------------------------
A---7-8--12-11-5-5-/-7---9-||-7-7-7-7-9---------------------------------
E------------------------7-||-5-5-5-5-7---------------------------------
                                                                        

        rythym 1                                                  x lots   
E---||--5-/-7-7-7-7-7-5-/-7-7-7-7-7-8--8--\-7-7-7-7-7-5-/-7-7-7-7-7--||-
B---||--7-/-9-9-9-9-9-7-/-9-9-9-9-9-10-10-\-9-9-9-9-9-7-/-9-9-9-9-9--||-
G---||*-7-/-9-9-9-9-9-7-/-9-9-9-9-9-10-10-\-9-9-9-9-9-7-/-9-9-9-9-9-*||-
D---||*-7-/-9-9-9-9-9-7-/-9-9-9-9-9-10-10-\-9-9-9-9-9-7-/-9-9-9-9-9-*||-
A---||--5-/-7-7-7-7-7-5-/-7-7-7-7-7-8--8--\-7-7-7-7-7-5-/-7-7-7-7-7--||-
E---||---------------------------------------------------------------||-
                                                                        

      lead 1                                                          
E----|--10-8-7-5-4-|---4-5/7-5-4-2-0/10-8-7-5-4-|---4-5/7-5-4-2-0---|---
B----|-------------|----------------------------|-------------------|---
G----|-------------|----------------------------|-------------------|---
D----|-------------|----------------------------|-------------------|---
A----|-------------|----------------------------|-------------------|---
E----|-------------|----------------------------|-------------------|---
   with vibrato or flanger turned way up                                                   

                                                                        
E---0-2/4-4-4/5/7-7-5\4---|-0-2/4-4-4/5/7-|-----------------------------
B-------------------------|---------------|-----------------------------
G-------------------------|---------------|-----------------------------
D-------------------------|---------------|-----------------------------
A-------------------------|---------------|-----------------------------
E-------------------------|---------------|-----------------------------
                                                                        

                                                                        
E---7-7-7-7-7-7/10-10-12-12^-12-10-10/12\10\9-7-7/9\7-5-4-4-5-4---|-----
B-----------------------------------------------------------------|-----
G-----------------------------------------------------------------|-----
D-----------------------------------------------------------------|-----
A-----------------------------------------------------------------|-----
E-----------------------------------------------------------------|-----
                                                                        

                                                                        
E---7-7-7-7-7-7/10-10-12-12^-12-10-10/12\10\9---------------------------
B-----------------------------------------------------------------------
G-----------------------------------------------------------------------
D-----------------------------------------------------------------------
A-----------------------------------------------------------------------
E-----------------------------------------------------------------------
                                                                        

                                                               2x       
E---||--12-12-12-12-12-12-12-12/14/16-16-16-16\14\12-12-13-12--||-------
B---||---------------------------------------------------------||-------
G---||*-------------------------------------------------------*||-------
D---||*-------------------------------------------------------*||-------
A---||---------------------------------------------------------||-------
E---||---------------------------------------------------------||-------
                                                                        

                rythym fill 2                  riff 1                   
E---10-8-7-5-||---------------------------||---------------------|------
B------------||---------------------------||---------------------|------
G------------||-----------10---10-10-10---||---------------------|------
D------------||-7---7-7-7-10---10-10-10-2-||---7-/-9-9-9-9-9-9-9-|------
A------------||-7---7-7-7-8----8--8--8--2-||---5-/-7-7-7-7-7-7-7-|------
E------------||-5---5-5-5---------------0-||---------------------|------
                                                                        

                                                                        
E-------------------------|-------------------|---------------||--------
B-------------------------|-------------------|---------------||--------
G-------------------------|-------------------|---------------||--------
D---7-/-9-9-9-\-5-5-5-5-5-|-7-/-9-9-9-9-9-9-9-|-7-7-/-14-\-12-||--------
A---5-/-7-7-7-\-3-3-3-3-3-|-5-/-7-7-7-7-7-7-7-|-5-5-/-12-\-10-||--------
E-------------------------|-------------------|---------------||--------
                                                                        

    chorus                                 end                          
E---------------------------------------||-----------------------|------
B---------------------------------------||-9---9-9-9---7---7-7-7-|------
G---------------------------------------||-9---9-9-9---7---7-7-7-|------
D---7---7-7-7-5---5-5-5-----------------||-9---9-9-9---7---7-7-7-|------
A---5---5-5-5-3---3-3-3-2---2-2-2-2-2-2-||-7---7-7-7---5---5-5-5-|------
E-----------------------0---0-0-0-0-0-0-||-----------------------|------
                                                                        

                                                                        
E-----------------|-----------------------|-----------------------------
B-----------------|-9---9-9-9---7---7-7-7-|-----------------------------
G-----------------|-9---9-9-9---7---7-7-7-|-----------------------------
D---2---2-2-2-2-2-|-9---9-9-9---7---7-7-7-|-2---------------------------
A---2---2-2-2-2-2-|-7---7-7-7---5---5-5-5-|-2---------------------------
E---0---0-0-0-0-0-|-----------------------|-0---------------------------
                                                  let ring                      

  development and support by
dmitry ivanov