rock
 
|tablatures   |lyrics   |discussion forums   |more tabs @ XGuitar.com

Offspring tabs

Pay The Man bass tab

The Offspring
Pay The Man
Americana
Tabbed by MattW

- INTRO -
g:------------------------|
d:---------3--33----------|
a:--0---00----------------|
e:---------------0---000--|

- VERSE -
g:---------------------------------------------|
d:----------------------------------------7-5--|
a:--5-7777-5-7-5-777-5-333-5-777-5-7-5---------|
e:---------------------------------------------|

- CHORUS -
g:-------------------|
d:-------------------|
a:--5-55--7-77-3-33--|
e:-------------------|
  development and support by
dmitry ivanov