rock
 
|tablatures   |lyrics   |discussion forums   |more tabs @ XGuitar.com

Offspring tabs

Out On Patrol bass tab

The Offspring - Out On Patrol
# intro # X4
G---------------------|
D---2-22-22-2-22-22---|
A---------------------|
E---------------------|
:
# main # X6  *=play 5X
G----*----------------------------------------------------------------|
D---2--------*-------*-----------------------*-------*----------------|
A-----------5-------0-------2-3-2----*------3-------5-------0-0-2-2---|
E---------------------------------3-0---------------------------------|
:
# bridge #   *=play 5X                                          >
G--------------------------------------------------------------->
D----*-------*-------*-------*-------*-------*------------------>
A---3-------5-------7-------7-------3-------5--------*-------*-->
E---------------------------------------------------0-------0--->
>bridge
>----------------------------------------------------|
>----*-------*-------*-------*-------*----------7\\\\\\-|
>---3-------5-------7-------7-------3-------5-5------|
>----------------------------------------------------|
:
Then play mainX4.
:
# bridge2 #   *=play 5X                                         >
G--------------------------------------------------------------->
D----*-------*-------*-------*-------*-------*------------------>
A---3-------5-------7-------7-------3-------5--------*-------*-->
E---------------------------------------------------0-------0--->
>bridge
>-------------------------------------------------------|
>----*-------*-------*-------*-------*-------*----------|
>---3-------5-------7-------7-------3-------5-----------|
>---------------------------------------------------0---|
:
Then play mainX4.
:
# outro #
G---------------------------|
D---2-2-2-2-------2-2-2-2---|
A---------------------------|
E---------------------------|
  development and support by
dmitry ivanov