rock
 
|tablatures   |lyrics   |discussion forums   |more tabs @ XGuitar.com

Offspring tabs

Original Prankster bass tab

band: offspring
song: original prankster
tabbed by: baz (bazapotamus@hotmail.com)
notes: thanks to Jonny - The_Mighty_Snap_Dragon@Hotmail.com

W W W . B A S S C R A W L E R . C O M

intro @ 0:05

G|-------------------|-------------------------------|
D|-------------------|------------7------------------|
A|---------------5---|----------------6-5-5--3-5-3---|
E|-01-5-5-8-5-5------|-01-5-5-8-5---5----------------|

main riff @ (thru-out :)

G|-------------------------------|  Brackets Only
D|----------7--------------------|  If Repeating Riff
A|--------------6-5-5--3-5-(3)---|
E|--5-5-8-5---5------------------|

fill 1a) palm mute this

G|-----------------------------------|
D|-----------------------------------|
A|-----------------7-7-7-7-7-7-7-7---|
E|--3-3-3-3-3-3-3--------------------|

fill 1b) palm mute this

G|----------------------------|
D|----------------------------|
A|-----------------7\\---(7)---|
E|--3-3-3-3-3-3-3-------------|

chorus

G|---------------------------|
D|---------------------------|
A|-----3--7--6--5-5--3-5-3---|
E|--5------------------------|

post-chorus

G|---------------------------|
D|---------------------------|
A|--------------5--5/10-10---|
E|--5-5--5-5-5---------------|

fill 2a)

  PM.---
G|--------------------------------| Brackets Last
D|--------------------------------|  Time Only
A|--10--5--10--5------------------|
E|----------------3-3-3-3-4-(5)---|

fill 2b)

  PM.-----------
G|----------------------------------|
D|----------------------------------|
A|--10--5--10--5--------------------|
E|----------------3-3-3-3-3-3-3-3---|

[ORDER]

INTRO

MAIN RIFF 4x without PM
MAIN RIFF 3x with PM
FILL 1a

MAIN RIFF 3x with PM
FILL 1a

CHORUS 3x
FILL 1a
POST CHORUS 3x
FILL 2a

MAIN RIFF 4x without PM
MAIN RIFF 3x with PM
FILL 1a

MAIN RIFF 3x with PM
FILL 1a

CHORUS 3x
FILL 1a
POST CHORUS 3x
FILL 2a

INTRO

MAIN RIFF 4x without PM
MAIN RIFF 3x with PM
FILL 1b

CHORUS 3x
FILL 1a

POST CHORUS 3x
FILL 2b
FILL 2a

W W W . B A S S C R A W L E R . C O M
    play bass, play basscrawler!
  development and support by
dmitry ivanov