rock
 
|tablatures   |lyrics   |discussion forums   |more tabs @ XGuitar.com

Offspring tabs

One Fine Day guitar tab

Website: The Offspring.com (http://www.theoffspring.com)
Tabbed By: per (per@coolast.com)
Tabbed For: Guitar
Song Title: One Fine Day
Album: Conspiracy Of One
Tab:
----------------------------------------------------------
note:
* = strum 8x
pm= palm mute
/ = slide
: = let ring

Song structure:
intro  1x
riff1  1x
chorus 4x
solo   1x
bridge 1x
intro  2x (with triplets)
chorus 4x
solo   1x
bridge 1x
riff2  4x
chorus 4x
outro  1x

Intro:(all palm muted)
    * *  *  *    *  * **
e|--------------------------------------------------
B|--------------------------------------------------
G|-11-----------11----------------------------------
D|-11-9-11-13---11-13-11----------------------------
A|--9-9-11-13----9-13-11----------------------------
E|----7--9-11------11--9----------------------------

riff1:
          *              *  * 
e|--------------------------------------------------
B|--------------------------------------------------
G|-10/11-11----------11-11-----11-11-11-------------
D|-10/11-11-9-11-13--11-11-13--11-11-11-9-11-13-----
A|--8/-9--9-9-11-13---9--9-13---9--9--9-9-11-13-----
E|----------7--9-11--------11-----------7--9-11-----
pm                      .....

Chorus:
    * *  *  *    *  * **
e|--------------------------------------------------
B|--------------------------------------------------
G|-11-----------11----------------------------------
D|-11-9-11-13---11-13-11----------------------------
A|--9-9-11-13----9-13-11----------------------------
E|----7--9-11------11--9----------------------------

solo:(this probably has some errors)
e|--------------------------------------------------
B|--------------------------------------------------
G|-------1------2-3-5-----------1-------------------
D|-0-2-3---0--3-------5---0-2-3----0-0-0-0----------
A|--------------------------------------------------
E|--------------------------------------------------
solo part2:
e|--------------------------------------------------
B|--------------------------------------------------
G|-------1------2-3-5------2-3-5---9-7-6-(3)--------
D|-0-2-3---0--3-------5--5--------------------------
A|--------------------------------------------------
E|--------------------------------------------------

bridge:
e|--------------------------------------------------
B|--------------------------------------------------
G|-11:----------------------------------------------
D|-11:----------------------------------------------
A|--9:----------------------------------------------
E|--------------------------------------------------

riff2:
e|--------------------------------------------------
B|--------------------------------------------------
G|-11-11-11-------------------------------13--------
D|-11-11-11-9-9-9-9-9-9-11-11-11-13-13-13-13-13-13--
A|--9--9--9-9-9-9-9-9-9-11-11-11-13-13-13-11-13-13--
E|----------7-7-7-7-7-7--9--9--9-11-11-11----11-11--

outro
            *           *
e|--------------------------------------------------
B|--------------------------------------------------
G|-11-11-11---------------11-11------9--------------
D|-11-11-11-9-11-11-11-13-11-11-9-11-9-9:-----------
A|--9--9--9-9-11-11-11-13--9--9-9-11-7-9:-----------
E|----------7--9--9--9-11-------7--9---7:-----------
----------------------------------------------------------
  development and support by
dmitry ivanov