rock
 
|tablatures   |lyrics   |discussion forums   |more tabs @ XGuitar.com

Offspring tabs

Nothing From Something guitar tab

Album: Ignition
Year: 1992
Track: 11
Title: Nothing from Something

Play once (* = play chord about 7-8 times)
|-----------------------------------|---------------------------------------|
|-----------------------------------|---------------------------------------|
|-9-9-x-7-9-9-9-x-x-7-7-7-7-7-x-9-9-|-9-9-x-7-9-9-9-x-x-7-7-7-7-7-----------|
|-9-9-x-7-9-9-9-x-x-7-7-7-7-7-x-9-9-|-9-9-x-7-9-9-9-x-x-7-7-7-7-7-x-9-9-9-9-|
|-7-7-x-5-7-7-7-x-x-5-5-5-5-5-x-7-7-|-7-7-x-5-7-7-7-x-x-5-5-5-5-5-x-9-9-9-9-|
|-----------------------------------|-----------------------------x-7-7-7-7-|
|-----------------------------------|------------------------|
|-----------------------------------|------------------------|
|-9-9-x-7-9-9-9-x-x-7-7-7-7-7-x-9-9-|------------------------|
|-9-9-x-7-9-9-9-x-x-7-7-7-7-7-x-9-9-|-10--------10-10/9*/12*-|
|-7-7-x-5-7-7-7-x-x-5-5-5-5-5-x-7-7-|-10--10-10/9*/12*-|
|-----------------------------------|--8---------8--8/7*/10*-|
Pre-Verse/Verse: (play once before verse, then 3x with each verse)
|-------------------------------------|------------------------------------------|
|-------------------------------------|------------------------------------------|
|-9-9-9-x-7-7-7-7-7---------9-9-9-9-9-|-9-9-9-x----------------7-7-7-x-9-9-9-9-9-|
|-9-9-9-x-7-7-7-7-7-7-7-7-x-9-9-9-9-9-|-9-9-9-x-10-10-10-10-10-7-7-7-x-9-9-9-9-9-|
|-7-7-7-x-5-5-5-5-5-7-7-7-x-7-7-7-7-7-|-7-7-7-x-10-10-10-10-10-5-5-5-x-7-7-7-7-7-|
|-------------------5-5-5-x-----------|----------8--8--8--8--8-------------------|

Chorus: (play 4x)
|-------------------------------------|
|-------------------------------------|
|-9-9-9-9--11-12-11-7-7-7-7-x---------|
|-9-9-9-9--11-12-11-7-7-7-7-x-9-9-9-9-|
|-7-7-7-7---9-10--9-5-5-5-5-x-9-9-9-9-|
|-----------------------------7-7-7-7-|
Repeat the intro, play the verse again, the chorus again, 
then the Bridge.

Bridge: (play 4x) - parenthesis means play 
3rd and 4th times only;
palm mute the whole thing
|---------------------------------------------------------------------|
|---------------------------------------------------------------------|
|---------------------------------------------------------------------|
|-------------9---------------9-9-------------9-10-10-9-9-------------|
|---7-7-10-10-------7-7-10-10-------7-7-10-10-------------10-10-9-(9)-|
|-0-------------0-0---------------0-----------------------------------|
Here's the biggest improvement over the other versions - the ENTIRE solo!
Play over the verse chords. (// = tremelo pick - play really fast lots of times)
(* = bend note up to the pitch of other [higher] note in the chord)
Note: these are octaves - play by muting the in-between string w/index finger
|----------------------------------------------------------------------------
|-------------------------------------------------------------12-12-12-12-12-
|-9-9-9-9-9-11-11-11-11-11-11-11-11-12-14-12-x-7-9--9-9-9-9-9----------------
|--------------------------------------------x-----------------9--9--9--9--9-
|-7-7-7-7-7--9--9--9--9--9--9--9--9-10-12-10-x-5-7--7-7-7-7-7----------------
|----------------------------------------------------------------------------
|---------------------------------------------12-//--------------------------
|-15-13--13-13-13-13-13--15//-13//-10//-12//--15*//--13--12------------------
|---------------------------------------------------15*-14*-12---------------
|-12-10--10-10-10-10-10--12//-10//--7//--9//--------------------14-14-13-14--
|-----------------------------------------------------------------------------
|------------------------------------------------------------------------------
|----------------------------------------12--
|-----------13//-12//--13//-12//--13//-12//--15*-
|-14//-12//--------------------------------------
|
------------------------------------------------
|
------------------------------------------------
|
------------------------------------------------
Play the chorus again then play the outro.Outro: (palm mute whole thing)
|--------------------------------------------------------|
|--------------------------------------------------------|
|-5-5-5-5-5-5-5-5--7-7-7-7-7-7-7-7-----------------------|
|-5-5-5-5-5-5-5-5--7-7-7-7-7-7-7-7---2-------------------|
|-3-3-3-3-3-3-3-3--5-5-5-5-5-5-5-5---2---|
|------------------------------------0-------------------|
  development and support by
dmitry ivanov