rock
 
|tablatures   |lyrics   |discussion forums   |more tabs @ XGuitar.com

Offspring tabs

Nothing From Something bass tab

Song:      Nothing From Something
Artist:    The Offspring
Album:     Ignition
Track:     11
Tabbed By: theinnocentbass

This is my first tab, so go easy on me! Probably not the best choice
for a first tab because the rhythm in the verse and at the end of
the chorus is a little tricky to tab out. I have used 'l' for a
longer note and 's' for a shorter note. I am sure all the notes are
correct and I'm fairly confident on the rhythm, except the end of
the chorus.

Intro x1
G|---------------------------------------------
D|---------------------------------------------
A|--------------------------------------3-2-5--
E|--0--------0--------0--------0---------------

Verse x3
G|------------------------------------
D|------------------------------------
A|--77777--55555555---------77777777--
E|-------------------55555------------
    llsss  lsssssss  llsss  lsssssss


G|------------------------------------
D|------------------------------------
A|--77777--33333333--55555--77777777--
E|------------------------------------
    llsss  lsssssss  llsss  lsssssss

Chorus x4
G|------------------------------------
D|------------------------------------
A|--7777--9-10-9--555555--------------
E|------------------------777777------
                  llssss  llssss

Intro x1

Verse x2

Chorus x4

Bridge x1
G|-------------------------------
D|-------------------------------
A|-------------------------------
E|----------0--------0--------0--

Verse x2

Chorus x4

Ending x1
G|----------------------------
D|----------------------------
A|--33333333--55555555--------
E|----------------------0-----
  development and support by
dmitry ivanov