rock
 
|tablatures   |lyrics   |discussion forums   |more tabs @ XGuitar.com

Offspring tabs

No Hero guitar tab

Album: Ignition
Year: 1992
Track: 9
Title: No hero

# intro #  X 2   (light distortion)    m=mute
E---------------------------------------------------------|
B---------------------------------------------------------|
G---------11-11-12--7-7-7-7-9----------7------------------|
D---9-9-9-11-11-12--7-7-7-7-9--7-7-7-7-7--9-9-9-9-9-9-9---|
A---9-9-9--9--9-10--5-5-5-5-7--7-7-7-7-5--9-9-9-9-9-9-9---|
E---7-7-7----------------------5-5-5-5----7-7-7-7-7-7-7---|
      m    m        m   m      m   m

# intro2 #    X 2
E---------------------------------------------------------|
B---------------------------------------------------------|
G---------11-11-12--7-7-7-7-9----------7------------------|
D---9-9-9-11-11-12--7-7-7-7-9--7-7-7-7-7--9-9-9-9-9-9-9---|
A---9-9-9--9--9-10--5-5-5-5-7--7-7-7-7-5--9-9-9-9-9-9-9---|
E---7-7-7----------------------5-5-5-5----7-7-7-7-7-7-7---|

# verse #   X 4
E---------------------------------------------------------|
B---------------------------------------------------------|
G---------11-11-12--7-7-7-7-9----------7------------------|
D---9-9-9-11-11-12--7-7-7-7-9--7-7-7-7-7--9-9-9-9-9-9-9---|
A---9-9-9--9--9-10--5-5-5-5-7--7-7-7-7-5--9-9-9-9-9-9-9---|
E---7-7-7----------------------5-5-5-5----7-7-7-7-7-7-7---|
    \__________________palm-mute______________________/

# pre-chorus #          *=play 10X      
E--------------------------------------|
B-----------------------------------*--|
G---9--9----------------9--9------11---|
D---9--9-9--9-4--4-9--9-9--9-9--9-11---|
A---7--7-9--9-4--4-9--9-7--7-9--9--9---|
E--------7--7-2--2-7--7------7--7------|

# chorus #  X 3    (brackets only last time)
E-------------------------------------------|
B-------------------------------------------|
G---12-12--7-7--9-9-9-9--(11-11-11-11-11)---|
D---12-12--7-7--9-9-9-9--(11-11-11-11-11)---|
A---10-10--5-5--7-7-7-7--(-9--9--9--9--9)---|
E-------------------------------------------|

Play verse, pre-chorus and chorus X2.

# bridge #                 # bridge2 #                
E---------------------|    E-----------------------------------------------|   
B---------------------|    B-----------------------------------------------|    
G---4---4---4-3-------|    G---4-4-4-4-----------5---4-4-4-4---------------|    
D---4---4-------5-4---|    D---4-4-4-4--4-4-4--7-5---4-4-4-4--4-4-4--7-7---|   
A---2---2-------------|    A---2-2-2-2--4-4-4--7-3---2-2-2-2--4-4-4--7-7---|   
E---------------------|    E------------2-2-2--5--------------2-2-2--5-5---|    
                               \______________palm-mute________________/              


# bridge3 # *=play 4X  # bridge4 #   *=play 10-12X
E---------------|      E------------------|
B----*---*------|      B---------------*--|
G--12--11---4---|      G---4-4-4-4-4--4---|             
D--12--11---4---|      D------------------|
A--10---9---2---|      A------------------|
E---------------|      E------------------|
                           \__mute_/

Play bridge2, bridge3, bridge2, intro2, verse, pre-chorus and chorus X2.
  development and support by
dmitry ivanov