rock
 
|tablatures   |lyrics   |discussion forums   |more tabs @ XGuitar.com

Offspring tabs

No Hero bass tab

# intro # X2
G----------------------------------------------------|
D-------4-4-55--0-0-0-0-22---------------------------|
A---2-2---------------------0-0-0-0-55--2-2-2-2-22---|
E----------------------------------------------------|
:
# verse # X4
G-------------------------------------------|
D-------4455-0-00-0022----------------------|
A---2-22--------------0-00-0055-2-22-2222---|
E-------------------------------------------|
:
# pre-chorus #          *=play 4-6X
G----*-----------------------*-----------*--|
D---2----0-*-----------*---02----0-*----4---|
A---------2----5-*---52-----------2----5----|
E---------------2---------------------------|
:
# chorus #        (brackets only last time)
G-|---------3X------|---------------|       > Then play verseX6, pre-chorus,
D-|-5-5-0-0-2-2-2-2-|-4-4-4-4-4-4---|         chorusX2.
A-|-----------------|---------------|
E-|-----------------|---------------|
:
# bridge #                                                            >
G--|--------------5X-------------------|-----------|-----------3X----->
D--|-----------------------------------|5-5-5-4-4-4|------------------>
A--|2-2-0-2-------4-5-2-2-0-2-------0--|-----------|2-2-0-2-------4-5->
E--|--------2-222-------------2-222---2|-----------|--------2-222----->
>bridge
>--------------------|-----------|-----------------4X-----------------|
>--------------------|5-5-5-4-4-4|------------------------------------|
>---2-2-0-2-------0--|-----------|2-2-0-2-------4-5-2-2-0-2-------0---|
>-----------2-222---2|-----------|--------2-222-------------2-222---2-|
:
Then play introX2, verseX4, pre-chorus and chorusX2.
  development and support by
dmitry ivanov