rock
 
|tablatures   |lyrics   |discussion forums   |more tabs @ XGuitar.com

Offspring tabs

Never Gonna Find Me guitar tab

Band: The Offspring
Song: Never Gonna Find Me
Album: Splinter
Year: 2003
HeterophobicTWAT

Tuned 1/2 step down

Intro:
eb|---|-------------------------------------------------------|
Bb|---|-------------------------------------------------------|
Gb|---|-9-9-9------------------------------12-12--9-9-9-------|
Db|---|-9-9-9--x-x--7-7-7---------x-10-10--12-12--9-9-9--x-x--|
Ab|-7-|-7-7-7--x-x--7-7-7---------x-10-10--10-10--7-7-7--x-x--|
Eb|-0-|--------x-x--5-5-5---------x--8--8----------------x-x--|


Verse:
eb|-----------------------------------------------------------|
Bb|-----------------------------------------------------------|
Gb|--9-9-9---------------------------12-12--9-9-9-------------|
Db|--9-9-9-------7-7-7--x-x---10-10--12-12--9-9-9-------------|
Ab|--7-7-7-------7-7-7--x-x---10-10--10-10--7-7-7-------------|
Eb|--------------5-5-5--x-x----8--8---------------------------|


eb|-----------------------------------------------------------|
Bb|-----------------------------------------------------------|
Gb|--9-9-9---------------------------12-12--9-9-9-------------|
Db|--9-9-9-------7-7-7--x-x---10-10--12-12--9-9-9--9-9-9------|
Ab|--7-7-7-------7-7-7--x-x---10-10--10-10--7-7-7--9-9-9------|
Eb|--------------5-5-5--x-x----8--8----------------7-7-7------|


Chorus
eb|-----------------------------------------------------------|
Bb|-----------------------------------------------------------|
Gb|--9-9-9-9-9-9-9-9--12-12--7---9-9-9-9-9-9-9-9--12-12--7----|
Db|--9-9-9-9-9-9-9-9--12-12--7---9-9-9-9-9-9-9-9--12-12--7----|
Ab|--7-7-7-7-7-7-7-7--10-10--5---7-7-7-7-7-7-7-7--10-10--5----|
Eb|-----------------------------------------------------------|


eb|-------------------------------------------------------|
Bb|-------------------------------------------------------|
Gb|----------------------------------------------5------7-|
Db|-2-2-2-2-2-2--5-5-5-5-5-5-5--7-7-7-7-7-7--5-5-5--7-7-7-|
Ab|-2-2-2-2-2-2--5-5-5-5-5-5-5--7-7-7-7-7-7--3-3-3--5-5-5-|
Eb|-0-0-0-0-0-0--3-3-3-3-3-3-3--5-5-5-5-5-5---------------|

Fill	    Riff
eb|--------|--------------------------------------------------|
Bb|--------|--------------------------------------------------|
Gb|--9-\\---|--9-9-9-9-9-9-9-9-9-9-9-9-9-9-9-9-9-9-9-9-9-9-9-9-|
Db|--9-\\---|--x-x-x-x-x-x-x-x-x-x-x-x-x-x-x-x-x-x-x-x-x-x-x-x-|
Ab|--7-\\---|--7-7-7-7-7-7-7-7-7-7-7-7-7-7-7-7-7-7-7-7-7-7-7-7-|
Eb|--------|--------------------------------------------------|


Outro 1
eb|-----------------------------------------------------------|
Bb|-----------------------------------------------------------|
Gb|--9-9-9----------------------------------------------------|
Db|--9-9-9----7-7----10-10-10-10----9-9-9-9-9-9-9-9-----------|
Ab|--7-7-7----7-7----10-10-10-10----7-7-7-7-7-7-7-7-----------|
Eb|-----------5-5-----8--8--8--8----0-0-0-0-0-0-0-0-----------|

eb|-----------------------------------------------------------|
Bb|-----------------------------------------------------------|
Gb|--9-9-9----------------------------------------------------|
Db|--9-9-9----7-7----10-10-10-10----9-9-9-9-9-9-9-9-----------|
Ab|--7-7-7----7-7----10-10-10-10----7-7-7-7-7-7-7-7-----------|
Eb|-----------5-5-----8--8--8--8----0-0-0-0-0-0-0-0-----------|

eb|-----------------------------------------------------------|
Bb|-----------------------------------------------------------|
Gb|--9-9-9----------------------------------------------------|
Db|--9-9-9----7-7----10-10-10-10----9-9-9-9-9-9-9-9-----------|
Ab|--7-7-7----7-7----10-10-10-10----7-7-7-7-7-7-7-7-----------|
Eb|-----------5-5-----8--8--8--8----0-0-0-0-0-0-0-0-----------|
  development and support by
dmitry ivanov