rock
 
|tablatures   |lyrics   |discussion forums   |more tabs @ XGuitar.com

Offspring tabs

Never Gonna Find Me bass tab

Artist: The Offspring
Song: Never Gonna Find Me
Album: Splinter
Bassist: Greg K.
Tuning: Standard

Verse
G|-------------------------------------|------|
D|-------------------------4444--------|------|
A|--66666666----------2222------666666-|------|
E|-----------44444444------------------|-6666-|

Chorus2x   /2x\\
G|-------------------|--------------------------------------|----|
D|---------4-44------|--------------------------------------|----|
A|-6666666------4-44-|-66666666-------------------22-2-44-4-|-6\\-|
E|-------------------|----------22222222-44444444-----------|----|

-verse
-chorus

Bridge/ending    2x
G|------------------|
D|------------------|
A|-666----2222-6666-|
E|-----44-----------|

G|-------------------------------------------|
D|-------------------------------------------|2x
A|66-66-6-66------------22-22-2-22-6666-4/66-|
E|-----------44-44-4-44----------------------|

(repeat until bass stops)
G|--------------------------------------|
D|--------------------------------------|
A|-66666666----------22222222-666666666-|
E|----------44444444--------------------|
  development and support by
dmitry ivanov