rock
 
|tablatures   |lyrics   |discussion forums   |more tabs @ XGuitar.com

Offspring tabs

Neocon guitar tab

Band: The Offspring
Song: Neocon
Album: Splinter
Year: 2003
HeterophobicTWAT

Verse:
e|---------------------|
b|---------------------|
G|----11-----11-----11-| (x1)
D|-11-11--11-11--11-11-|
A|-9--9---9--9---9--9--|
E|---------------------|

e|------------------------------------|
b|------------------------------------|
G|----11-------11-------11-------11---| (x2)
D|-11-11----11-11----11-11----11-11---|
A|-9--9--6--9--9--6--9--9--6--9--9--6-|
E|------------------------------------|

e|----------------|
b|----------------|
G|----11--8--6--8-|
D|-11-11--8--6--8-|
A|-9--9---6--4--6-|
E|----------------|
  development and support by
dmitry ivanov